  0
SECTION
  2
HEADER
  9
$ACADVER
  1
AC1009
  9
$INSBASE
 10
0.0
 20
0.0
 30
0.0
  9
$EXTMIN
 10
27.838235
 20
20.0
 30
0.0
  9
$EXTMAX
 10
581.89048
 20
319.017828
 30
0.0
  9
$LIMMIN
 10
0.0
 20
0.0
  9
$LIMMAX
 10
594.0
 20
420.0
  9
$ORTHOMODE
 70
     1
  9
$REGENMODE
 70
     1
  9
$FILLMODE
 70
     1
  9
$QTEXTMODE
 70
     0
  9
$MIRRTEXT
 70
     1
  9
$DRAGMODE
 70
     2
  9
$LTSCALE
 40
1.0
  9
$OSMODE
 70
     5
  9
$ATTMODE
 70
     1
  9
$TEXTSIZE
 40
0.2
  9
$TRACEWID
 40
0.05
  9
$TEXTSTYLE
  7
STANDARD
  9
$CLAYER
  8
0
  9
$CELTYPE
  6
CONTINUOUS
  9
$CECOLOR
 62
   256
  9
$DIMSCALE
 40
1.0
  9
$DIMASZ
 40
0.18
  9
$DIMEXO
 40
0.0625
  9
$DIMDLI
 40
0.38
  9
$DIMRND
 40
0.0
  9
$DIMDLE
 40
0.0
  9
$DIMEXE
 40
0.18
  9
$DIMTP
 40
0.0
  9
$DIMTM
 40
0.0
  9
$DIMTXT
 40
0.18
  9
$DIMCEN
 40
0.09
  9
$DIMTSZ
 40
0.0
  9
$DIMTOL
 70
     0
  9
$DIMLIM
 70
     0
  9
$DIMTIH
 70
     1
  9
$DIMTOH
 70
     1
  9
$DIMSE1
 70
     0
  9
$DIMSE2
 70
     0
  9
$DIMTAD
 70
     0
  9
$DIMZIN
 70
     0
  9
$DIMBLK
  1

  9
$DIMASO
 70
     1
  9
$DIMSHO
 70
     1
  9
$DIMPOST
  1

  9
$DIMAPOST
  1

  9
$DIMALT
 70
     0
  9
$DIMALTD
 70
     2
  9
$DIMALTF
 40
25.4
  9
$DIMLFAC
 40
1.0
  9
$DIMTOFL
 70
     0
  9
$DIMTVP
 40
0.0
  9
$DIMTIX
 70
     0
  9
$DIMSOXD
 70
     0
  9
$DIMSAH
 70
     0
  9
$DIMBLK1
  1

  9
$DIMBLK2
  1

  9
$DIMSTYLE
  2
STANDARD
  9
$DIMCLRD
 70
     0
  9
$DIMCLRE
 70
     0
  9
$DIMCLRT
 70
     0
  9
$DIMTFAC
 40
1.0
  9
$DIMGAP
 40
0.09
  9
$LUNITS
 70
     2
  9
$LUPREC
 70
     4
  9
$SKETCHINC
 40
0.1
  9
$FILLETRAD
 40
0.0
  9
$AUNITS
 70
     0
  9
$AUPREC
 70
     0
  9
$MENU
  1
acad
  9
$ELEVATION
 40
0.0
  9
$PELEVATION
 40
0.0
  9
$THICKNESS
 40
0.0
  9
$LIMCHECK
 70
     0
  9
$BLIPMODE
 70
     0
  9
$CHAMFERA
 40
0.0
  9
$CHAMFERB
 40
0.0
  9
$SKPOLY
 70
     0
  9
$TDCREATE
 40
2451585.893646
  9
$TDUPDATE
 40
2451601.490247
  9
$TDINDWG
 40
0.016315
  9
$TDUSRTIMER
 40
0.016315
  9
$USRTIMER
 70
     1
  9
$ANGBASE
 50
0.0
  9
$ANGDIR
 70
     0
  9
$PDMODE
 70
     0
  9
$PDSIZE
 40
0.0
  9
$PLINEWID
 40
0.0
  9
$COORDS
 70
     1
  9
$SPLFRAME
 70
     0
  9
$SPLINETYPE
 70
     6
  9
$SPLINESEGS
 70
     8
  9
$ATTDIA
 70
     0
  9
$ATTREQ
 70
     1
  9
$HANDLING
 70
     1
  9
$HANDSEED
  5
635
  9
$SURFTAB1
 70
     6
  9
$SURFTAB2
 70
     6
  9
$SURFTYPE
 70
     6
  9
$SURFU
 70
     6
  9
$SURFV
 70
     6
  9
$UCSNAME
  2

  9
$UCSORG
 10
0.0
 20
0.0
 30
0.0
  9
$UCSXDIR
 10
1.0
 20
0.0
 30
0.0
  9
$UCSYDIR
 10
0.0
 20
1.0
 30
0.0
  9
$PUCSNAME
  2

  9
$PUCSORG
 10
0.0
 20
0.0
 30
0.0
  9
$PUCSXDIR
 10
1.0
 20
0.0
 30
0.0
  9
$PUCSYDIR
 10
0.0
 20
1.0
 30
0.0
  9
$USERI1
 70
     0
  9
$USERI2
 70
     0
  9
$USERI3
 70
     0
  9
$USERI4
 70
     0
  9
$USERI5
 70
     0
  9
$USERR1
 40
0.0
  9
$USERR2
 40
0.0
  9
$USERR3
 40
0.0
  9
$USERR4
 40
0.0
  9
$USERR5
 40
0.0
  9
$WORLDVIEW
 70
     1
  9
$SHADEDGE
 70
     3
  9
$SHADEDIF
 70
    70
  9
$TILEMODE
 70
     1
  9
$MAXACTVP
 70
    48
  9
$PLIMCHECK
 70
     0
  9
$PEXTMIN
 10
1.000000E+020
 20
1.000000E+020
 30
1.000000E+020
  9
$PEXTMAX
 10
-1.000000E+020
 20
-1.000000E+020
 30
-1.000000E+020
  9
$PLIMMIN
 10
0.0
 20
0.0
  9
$PLIMMAX
 10
12.0
 20
9.0
  9
$UNITMODE
 70
     0
  9
$VISRETAIN
 70
     1
  9
$PLINEGEN
 70
     0
  9
$PSLTSCALE
 70
     1
  0
ENDSEC
  0
SECTION
  2
TABLES
  0
TABLE
  2
VPORT
 70
     2
  0
VPORT
  2
*ACTIVE
 70
     0
 10
0.0
 20
0.0
 11
1.0
 21
1.0
 12
385.278884
 22
210.0
 13
0.0
 23
0.0
 14
1.0
 24
1.0
 15
0.0
 25
0.0
 16
0.0
 26
0.0
 36
1.0
 17
0.0
 27
0.0
 37
0.0
 40
420.0
 41
1.834661
 42
50.0
 43
0.0
 44
0.0
 50
0.0
 51
0.0
 71
     0
 72
   100
 73
     1
 74
     1
 75
     0
 76
     0
 77
     0
 78
     0
  0
ENDTAB
  0
TABLE
  2
LTYPE
 70
     4
  0
LTYPE
  2
CONTINUOUS
 70
     0
  3
______________
 72
    65
 73
     0
 40
0.0
  0
LTYPE
  2
CENTER
 70
     0
  3
Center ____ _ ____ _ ____ _ ____ _ ____ _ ____
 72
    65
 73
     4
 40
2.0
 49
1.25
 49
-0.25
 49
0.25
 49
-0.25
  0
LTYPE
  2
HIDDEN
 70
     0
  3
Hidden __ __ __ __ __ __ __ __ __ __ __ __ __ _
 72
    65
 73
     2
 40
0.375
 49
0.25
 49
-0.125
  0
LTYPE
  2
PHANTOM
 70
     0
  3
Phantom ______  __  __  ______  __  __  ______
 72
    65
 73
     6
 40
2.5
 49
1.25
 49
-0.25
 49
0.25
 49
-0.25
 49
0.25
 49
-0.25
  0
ENDTAB
  0
TABLE
  2
LAYER
 70
     2
  0
LAYER
  2
0
 70
     0
 62
     7
  6
CONTINUOUS
  0
LAYER
  2
1
 70
     0
 62
     7
  6
CONTINUOUS
  0
ENDTAB
  0
TABLE
  2
STYLE
 70
     1
  0
STYLE
  2
STANDARD
 70
     0
 40
0.0
 41
1.0
 50
0.0
 71
     0
 42
3.2
  3
TXT
  4
EXTFONT
  0
ENDTAB
  0
TABLE
  2
VIEW
 70
     0
  0
ENDTAB
  0
TABLE
  2
UCS
 70
     0
  0
ENDTAB
  0
TABLE
  2
APPID
 70
     3
  0
APPID
  2
ACAD
 70
     0
  0
APPID
  2
CONTENTBLOCKICON
 70
     0
  0
APPID
  2
CONTENTBLOCKDESCRIPTION
 70
     0
  0
ENDTAB
  0
TABLE
  2
DIMSTYLE
 70
     1
  0
DIMSTYLE
  2
STANDARD
 70
     0
  3

  4

  5

  6

  7

 40
1.0
 41
0.18
 42
0.0625
 43
0.38
 44
0.18
 45
0.0
 46
0.0
 47
0.0
 48
0.0
140
0.18
141
0.09
142
0.0
143
25.4
144
1.0
145
0.0
146
1.0
147
0.09
 71
     0
 72
     0
 73
     1
 74
     1
 75
     0
 76
     0
 77
     0
 78
     0
170
     0
171
     2
172
     0
173
     0
174
     0
175
     0
176
     0
177
     0
178
     0
  0
ENDTAB
  0
ENDSEC
  0
SECTION
  2
BLOCKS
  0
BLOCK
  8
0
  2
$MODEL_SPACE
 70
     0
 10
0.0
 20
0.0
 30
0.0
  3
$MODEL_SPACE
  1

  0
ENDBLK
  5
62E
  8
0
  0
BLOCK
 67
     1
  8
0
  2
$PAPER_SPACE
 70
     0
 10
0.0
 20
0.0
 30
0.0
  3
$PAPER_SPACE
  1

  0
ENDBLK
  5
62C
 67
     1
  8
0
  0
BLOCK
  8
0
  2
BLK153
 70
     0
 10
0.0
 20
0.0
 30
0.0
  3
BLK153
  1

  0
ARC
  5
7B
  8
1
  6
CONTINUOUS
 62
     7
 10
0.0
 20
0.0
 30
0.0
 40
1.0
 50
105.866564
 51
109.983514
  0
ENDBLK
  5
7C
  8
0
  0
BLOCK
  8
0
  2
BLK586
 70
     0
 10
106.752537
 20
235.651247
 30
0.0
  3
BLK586
  1

  0
LINE
  5
7F
  8
1
  6
CONTINUOUS
 62
     2
 10
113.627537
 20
238.151247
 30
0.0
 11
113.627537
 21
236.526247
 31
0.0
  0
LINE
  5
80
  8
1
  6
CONTINUOUS
 62
     2
 10
112.502537
 20
238.151247
 30
0.0
 11
113.627537
 21
236.526247
 31
0.0
  0
LINE
  5
81
  8
1
  6
CONTINUOUS
 62
     2
 10
114.252537
 20
238.151247
 30
0.0
 11
113.627537
 21
238.151247
 31
0.0
  0
LINE
  5
82
  8
1
  6
CONTINUOUS
 62
     2
 10
112.377537
 20
235.651247
 30
0.0
 11
112.377537
 21
237.276247
 31
0.0
  0
LINE
  5
83
  8
1
  6
CONTINUOUS
 62
     2
 10
111.752537
 20
238.151247
 30
0.0
 11
111.752537
 21
235.651247
 31
0.0
  0
LINE
  5
84
  8
1
  6
CONTINUOUS
 62
     2
 10
112.502537
 20
238.151247
 30
0.0
 11
111.752537
 21
238.151247
 31
0.0
  0
LINE
  5
85
  8
1
  6
CONTINUOUS
 62
     2
 10
111.752537
 20
235.651247
 30
0.0
 11
112.377537
 21
235.651247
 31
0.0
  0
LINE
  5
86
  8
1
  6
CONTINUOUS
 62
     2
 10
111.627537
 20
235.651247
 30
0.0
 11
111.627537
 21
236.276247
 31
0.0
  0
LINE
  5
87
  8
1
  6
CONTINUOUS
 62
     2
 10
114.252537
 20
235.651247
 30
0.0
 11
113.502537
 21
235.651247
 31
0.0
  0
LINE
  5
88
  8
1
  6
CONTINUOUS
 62
     2
 10
109.377537
 20
237.151247
 30
0.0
 11
109.377537
 21
237.401247
 31
0.0
  0
LINE
  5
89
  8
1
  6
CONTINUOUS
 62
     2
 10
108.752537
 20
237.151247
 30
0.0
 11
109.377537
 21
237.151247
 31
0.0
  0
LINE
  5
8A
  8
1
  6
CONTINUOUS
 62
     2
 10
108.752537
 20
237.276247
 30
0.0
 11
108.752537
 21
237.151247
 31
0.0
  0
LINE
  5
8B
  8
1
  6
CONTINUOUS
 62
     2
 10
107.752537
 20
237.526247
 30
0.0
 11
108.502537
 21
237.526247
 31
0.0
  0
LINE
  5
8C
  8
1
  6
CONTINUOUS
 62
     2
 10
107.502537
 20
236.526247
 30
0.0
 11
107.502537
 21
237.276247
 31
0.0
  0
LINE
  5
8D
  8
1
  6
CONTINUOUS
 62
     2
 10
108.502537
 20
236.276247
 30
0.0
 11
107.752537
 21
236.276247
 31
0.0
  0
LINE
  5
8E
  8
1
  6
CONTINUOUS
 62
     2
 10
108.127537
 20
236.526247
 30
0.0
 11
108.752537
 21
236.526247
 31
0.0
  0
LINE
  5
8F
  8
1
  6
CONTINUOUS
 62
     2
 10
108.127537
 20
237.026247
 30
0.0
 11
108.127537
 21
236.526247
 31
0.0
  0
LINE
  5
90
  8
1
  6
CONTINUOUS
 62
     2
 10
109.377537
 20
237.026247
 30
0.0
 11
108.127537
 21
237.026247
 31
0.0
  0
LINE
  5
91
  8
1
  6
CONTINUOUS
 62
     2
 10
109.377537
 20
236.401247
 30
0.0
 11
109.377537
 21
237.026247
 31
0.0
  0
LINE
  5
92
  8
1
  6
CONTINUOUS
 62
     2
 10
109.502537
 20
235.651247
 30
0.0
 11
111.627537
 21
235.651247
 31
0.0
  0
ARC
  5
93
  8
1
  6
CONTINUOUS
 62
     2
 10
108.627537
 20
236.401247
 30
0.0
 40
0.75
 50
270.0
 51
0.0
  0
ARC
  5
94
  8
1
  6
CONTINUOUS
 62
     2
 10
107.627537
 20
236.401247
 30
0.0
 40
0.75
 50
180.0
 51
270.0
  0
ARC
  5
95
  8
1
  6
CONTINUOUS
 62
     2
 10
108.502537
 20
237.276247
 30
0.0
 40
0.25
 50
0.0
 51
90.0
  0
ARC
  5
96
  8
1
  6
CONTINUOUS
 62
     2
 10
108.627537
 20
237.401247
 30
0.0
 40
0.75
 50
0.0
 51
90.0
  0
LINE
  5
97
  8
1
  6
CONTINUOUS
 62
     2
 10
109.502537
 20
238.151247
 30
0.0
 11
109.502537
 21
235.651247
 31
0.0
  0
LINE
  5
98
  8
1
  6
CONTINUOUS
 62
     2
 10
111.627537
 20
238.151247
 30
0.0
 11
109.502537
 21
238.151247
 31
0.0
  0
LINE
  5
99
  8
1
  6
CONTINUOUS
 62
     2
 10
114.252537
 20
238.151247
 30
0.0
 11
114.252537
 21
235.651247
 31
0.0
  0
LINE
  5
9A
  8
1
  6
CONTINUOUS
 62
     2
 10
105.002537
 20
237.026247
 30
0.0
 11
105.877537
 21
238.151247
 31
0.0
  0
LINE
  5
9B
  8
1
  6
CONTINUOUS
 62
     2
 10
106.127537
 20
235.651247
 30
0.0
 11
106.752537
 21
235.651247
 31
0.0
  0
LINE
  5
9C
  8
1
  6
CONTINUOUS
 62
     2
 10
105.877537
 20
238.151247
 30
0.0
 11
105.127537
 21
238.151247
 31
0.0
  0
LINE
  5
9D
  8
1
  6
CONTINUOUS
 62
     2
 10
105.127537
 20
238.151247
 30
0.0
 11
104.252537
 21
237.026247
 31
0.0
  0
ARC
  5
9E
  8
1
  6
CONTINUOUS
 62
     2
 10
107.752537
 20
236.526247
 30
0.0
 40
0.25
 50
180.0
 51
270.0
  0
LINE
  5
9F
  8
1
  6
CONTINUOUS
 62
     2
 10
106.752537
 20
238.151247
 30
0.0
 11
106.127537
 21
238.151247
 31
0.0
  0
LINE
  5
A0
  8
1
  6
CONTINUOUS
 62
     2
 10
105.252537
 20
235.651247
 30
0.0
 11
106.002537
 21
235.651247
 31
0.0
  0
ARC
  5
A1
  8
1
  6
CONTINUOUS
 62
     2
 10
107.627537
 20
237.401247
 30
0.0
 40
0.75
 50
90.0
 51
180.0
  0
LINE
  5
A2
  8
1
  6
CONTINUOUS
 62
     2
 10
106.002537
 20
235.651247
 30
0.0
 11
105.002537
 21
237.026247
 31
0.0
  0
LINE
  5
A3
  8
1
  6
CONTINUOUS
 62
     2
 10
106.752537
 20
235.651247
 30
0.0
 11
106.752537
 21
238.151247
 31
0.0
  0
LINE
  5
A4
  8
1
  6
CONTINUOUS
 62
     2
 10
104.252537
 20
238.151247
 30
0.0
 11
103.627537
 21
238.151247
 31
0.0
  0
LINE
  5
A5
  8
1
  6
CONTINUOUS
 62
     2
 10
104.252537
 20
237.026247
 30
0.0
 11
105.252537
 21
235.651247
 31
0.0
  0
LINE
  5
A6
  8
1
  6
CONTINUOUS
 62
     2
 10
102.767537
 20
236.026247
 30
0.0
 11
102.902537
 21
235.651247
 31
0.0
  0
LINE
  5
A7
  8
1
  6
CONTINUOUS
 62
     2
 10
110.127537
 20
236.276247
 30
0.0
 11
110.127537
 21
236.651247
 31
0.0
  0
LINE
  5
A8
  8
1
  6
CONTINUOUS
 62
     2
 10
111.627537
 20
236.276247
 30
0.0
 11
110.127537
 21
236.276247
 31
0.0
  0
LINE
  5
A9
  8
1
  6
CONTINUOUS
 62
     2
 10
102.252537
 20
237.456803
 30
0.0
 11
102.551537
 21
236.626247
 31
0.0
  0
LINE
  5
AA
  8
1
  6
CONTINUOUS
 62
     2
 10
103.527537
 20
235.651247
 30
0.0
 11
102.902537
 21
235.651247
 31
0.0
  0
LINE
  5
AB
  8
1
  6
CONTINUOUS
 62
     2
 10
102.252537
 20
237.456803
 30
0.0
 11
101.953537
 21
236.626247
 31
0.0
  0
ARC
  5
AC
  8
1
  6
CONTINUOUS
 62
     2
 10
108.502537
 20
236.526247
 30
0.0
 40
0.25
 50
270.0
 51
0.0
  0
LINE
  5
AD
  8
1
  6
CONTINUOUS
 62
     2
 10
104.252537
 20
235.651247
 30
0.0
 11
104.252537
 21
238.151247
 31
0.0
  0
LINE
  5
AE
  8
1
  6
CONTINUOUS
 62
     2
 10
100.977537
 20
235.651247
 30
0.0
 11
101.602537
 21
235.651247
 31
0.0
  0
LINE
  5
AF
  8
1
  6
CONTINUOUS
 62
     2
 10
101.877537
 20
238.151247
 30
0.0
 11
102.627537
 21
238.151247
 31
0.0
  0
LINE
  5
B0
  8
1
  6
CONTINUOUS
 62
     2
 10
102.627537
 20
238.151247
 30
0.0
 11
103.527537
 21
235.651247
 31
0.0
  0
LINE
  5
B1
  8
1
  6
CONTINUOUS
 62
     2
 10
101.877537
 20
238.151247
 30
0.0
 11
100.977537
 21
235.651247
 31
0.0
  0
LINE
  5
B2
  8
1
  6
CONTINUOUS
 62
     2
 10
106.127537
 20
238.151247
 30
0.0
 11
106.127537
 21
235.651247
 31
0.0
  0
LINE
  5
B3
  8
1
  6
CONTINUOUS
 62
     2
 10
112.377537
 20
237.276247
 30
0.0
 11
113.502537
 21
235.651247
 31
0.0
  0
LINE
  5
B4
  8
1
  6
CONTINUOUS
 62
     2
 10
101.953537
 20
236.626247
 30
0.0
 11
102.551537
 21
236.626247
 31
0.0
  0
LINE
  5
B5
  8
1
  6
CONTINUOUS
 62
     2
 10
101.737537
 20
236.026247
 30
0.0
 11
101.602537
 21
235.651247
 31
0.0
  0
LINE
  5
B6
  8
1
  6
CONTINUOUS
 62
     2
 10
102.767537
 20
236.026247
 30
0.0
 11
101.737537
 21
236.026247
 31
0.0
  0
LINE
  5
B7
  8
1
  6
CONTINUOUS
 62
     2
 10
108.627537
 20
238.151247
 30
0.0
 11
107.627537
 21
238.151247
 31
0.0
  0
LINE
  5
B8
  8
1
  6
CONTINUOUS
 62
     2
 10
101.627537
 20
237.601247
 30
0.0
 11
101.627537
 21
238.151247
 31
0.0
  0
LINE
  5
B9
  8
1
  6
CONTINUOUS
 62
     2
 10
100.752537
 20
237.601247
 30
0.0
 11
101.627537
 21
237.601247
 31
0.0
  0
LINE
  5
BA
  8
1
  6
CONTINUOUS
 62
     2
 10
100.752537
 20
235.651247
 30
0.0
 11
100.752537
 21
237.601247
 31
0.0
  0
LINE
  5
BB
  8
1
  6
CONTINUOUS
 62
     2
 10
100.127537
 20
235.651247
 30
0.0
 11
100.752537
 21
235.651247
 31
0.0
  0
LINE
  5
BC
  8
1
  6
CONTINUOUS
 62
     2
 10
100.127537
 20
237.601247
 30
0.0
 11
100.127537
 21
235.651247
 31
0.0
  0
LINE
  5
BD
  8
1
  6
CONTINUOUS
 62
     2
 10
99.252537
 20
237.601247
 30
0.0
 11
100.127537
 21
237.601247
 31
0.0
  0
LINE
  5
BE
  8
1
  6
CONTINUOUS
 62
     2
 10
99.252537
 20
238.151247
 30
0.0
 11
99.252537
 21
237.601247
 31
0.0
  0
LINE
  5
BF
  8
1
  6
CONTINUOUS
 62
     2
 10
101.627537
 20
238.151247
 30
0.0
 11
99.252537
 21
238.151247
 31
0.0
  0
LINE
  5
C0
  8
1
  6
CONTINUOUS
 62
     2
 10
103.627537
 20
235.651247
 30
0.0
 11
104.252537
 21
235.651247
 31
0.0
  0
LINE
  5
C1
  8
1
  6
CONTINUOUS
 62
     2
 10
103.627537
 20
238.151247
 30
0.0
 11
103.627537
 21
235.651247
 31
0.0
  0
LINE
  5
C2
  8
1
  6
CONTINUOUS
 62
     2
 10
106.877537
 20
237.401247
 30
0.0
 11
106.877537
 21
236.401247
 31
0.0
  0
ARC
  5
C3
  8
1
  6
CONTINUOUS
 62
     2
 10
107.752537
 20
237.276247
 30
0.0
 40
0.25
 50
90.0
 51
180.0
  0
LINE
  5
C4
  8
1
  6
CONTINUOUS
 62
     2
 10
107.627537
 20
235.651247
 30
0.0
 11
108.627537
 21
235.651247
 31
0.0
  0
LINE
  5
C5
  8
1
  6
CONTINUOUS
 62
     2
 10
110.127537
 20
236.651247
 30
0.0
 11
111.502537
 21
236.651247
 31
0.0
  0
LINE
  5
C6
  8
1
  6
CONTINUOUS
 62
     2
 10
111.502537
 20
236.651247
 30
0.0
 11
111.502537
 21
237.213747
 31
0.0
  0
LINE
  5
C7
  8
1
  6
CONTINUOUS
 62
     2
 10
111.502537
 20
237.213747
 30
0.0
 11
110.127537
 21
237.213747
 31
0.0
  0
LINE
  5
C8
  8
1
  6
CONTINUOUS
 62
     2
 10
110.127537
 20
237.213747
 30
0.0
 11
110.127537
 21
237.601247
 31
0.0
  0
LINE
  5
C9
  8
1
  6
CONTINUOUS
 62
     2
 10
110.127537
 20
237.601247
 30
0.0
 11
111.627537
 21
237.601247
 31
0.0
  0
LINE
  5
CA
  8
1
  6
CONTINUOUS
 62
     2
 10
111.627537
 20
237.601247
 30
0.0
 11
111.627537
 21
238.151247
 31
0.0
  0
ENDBLK
  5
CB
  8
0
  0
BLOCK
  8
0
  2
BLK587
 70
     0
 10
106.752537
 20
235.651247
 30
0.0
  3
BLK587
  1

  0
INSERT
  5
CE
  8
1
  6
CONTINUOUS
 62
     7
  2
BLK586
 10
106.752537
 20
235.651247
 30
0.0
  0
ENDBLK
  5
CF
  8
0
  0
BLOCK
  8
0
  2
BLK705
 70
     0
 10
422.843308
 20
233.138739
 30
0.0
  3
BLK705
  1

  0
LINE
  5
D2
  8
1
  6
CONTINUOUS
 62
     2
 10
428.693308
 20
233.138739
 30
0.0
 11
428.693308
 21
233.888739
 31
0.0
  0
LINE
  5
D3
  8
1
  6
CONTINUOUS
 62
     2
 10
429.593308
 20
233.138739
 30
0.0
 11
429.593308
 21
235.088739
 31
0.0
  0
LINE
  5
D4
  8
1
  6
CONTINUOUS
 62
     2
 10
428.843308
 20
233.138739
 30
0.0
 11
429.593308
 21
233.138739
 31
0.0
  0
LINE
  5
D5
  8
1
  6
CONTINUOUS
 62
     2
 10
428.843308
 20
236.138739
 30
0.0
 11
428.843308
 21
233.138739
 31
0.0
  0
LINE
  5
D6
  8
1
  6
CONTINUOUS
 62
     2
 10
429.743308
 20
236.138739
 30
0.0
 11
428.843308
 21
236.138739
 31
0.0
  0
LINE
  5
D7
  8
1
  6
CONTINUOUS
 62
     2
 10
429.743308
 20
236.138739
 30
0.0
 11
431.093308
 21
234.188739
 31
0.0
  0
LINE
  5
D8
  8
1
  6
CONTINUOUS
 62
     2
 10
431.093308
 20
236.138739
 30
0.0
 11
431.093308
 21
234.188739
 31
0.0
  0
LINE
  5
D9
  8
1
  6
CONTINUOUS
 62
     2
 10
431.843308
 20
236.138739
 30
0.0
 11
431.093308
 21
236.138739
 31
0.0
  0
LINE
  5
DA
  8
1
  6
CONTINUOUS
 62
     2
 10
431.843308
 20
233.138739
 30
0.0
 11
430.943308
 21
233.138739
 31
0.0
  0
LINE
  5
DB
  8
1
  6
CONTINUOUS
 62
     2
 10
425.993308
 20
234.938739
 30
0.0
 11
425.993308
 21
235.238739
 31
0.0
  0
LINE
  5
DC
  8
1
  6
CONTINUOUS
 62
     2
 10
425.243308
 20
234.938739
 30
0.0
 11
425.993308
 21
234.938739
 31
0.0
  0
LINE
  5
DD
  8
1
  6
CONTINUOUS
 62
     2
 10
425.243308
 20
235.088739
 30
0.0
 11
425.243308
 21
234.938739
 31
0.0
  0
LINE
  5
DE
  8
1
  6
CONTINUOUS
 62
     2
 10
424.043308
 20
235.388739
 30
0.0
 11
424.943308
 21
235.388739
 31
0.0
  0
LINE
  5
DF
  8
1
  6
CONTINUOUS
 62
     2
 10
423.743308
 20
234.188739
 30
0.0
 11
423.743308
 21
235.088739
 31
0.0
  0
LINE
  5
E0
  8
1
  6
CONTINUOUS
 62
     2
 10
424.943308
 20
233.888739
 30
0.0
 11
424.043308
 21
233.888739
 31
0.0
  0
LINE
  5
E1
  8
1
  6
CONTINUOUS
 62
     2
 10
424.493308
 20
234.188739
 30
0.0
 11
425.243308
 21
234.188739
 31
0.0
  0
LINE
  5
E2
  8
1
  6
CONTINUOUS
 62
     2
 10
424.493308
 20
234.788739
 30
0.0
 11
424.493308
 21
234.188739
 31
0.0
  0
LINE
  5
E3
  8
1
  6
CONTINUOUS
 62
     2
 10
425.993308
 20
234.788739
 30
0.0
 11
424.493308
 21
234.788739
 31
0.0
  0
LINE
  5
E4
  8
1
  6
CONTINUOUS
 62
     2
 10
425.993308
 20
234.038739
 30
0.0
 11
425.993308
 21
234.788739
 31
0.0
  0
LINE
  5
E5
  8
1
  6
CONTINUOUS
 62
     2
 10
426.143308
 20
233.138739
 30
0.0
 11
428.693308
 21
233.138739
 31
0.0
  0
ARC
  5
E6
  8
1
  6
CONTINUOUS
 62
     2
 10
425.093308
 20
234.038739
 30
0.0
 40
0.9
 50
270.0
 51
0.0
  0
ARC
  5
E7
  8
1
  6
CONTINUOUS
 62
     2
 10
423.893308
 20
234.038739
 30
0.0
 40
0.9
 50
180.0
 51
270.0
  0
ARC
  5
E8
  8
1
  6
CONTINUOUS
 62
     2
 10
424.943308
 20
235.088739
 30
0.0
 40
0.3
 50
0.0
 51
90.0
  0
ARC
  5
E9
  8
1
  6
CONTINUOUS
 62
     2
 10
425.093308
 20
235.238739
 30
0.0
 40
0.9
 50
0.0
 51
90.0
  0
LINE
  5
EA
  8
1
  6
CONTINUOUS
 62
     2
 10
426.143308
 20
236.138739
 30
0.0
 11
426.143308
 21
233.138739
 31
0.0
  0
LINE
  5
EB
  8
1
  6
CONTINUOUS
 62
     2
 10
428.693308
 20
236.138739
 30
0.0
 11
426.143308
 21
236.138739
 31
0.0
  0
LINE
  5
EC
  8
1
  6
CONTINUOUS
 62
     2
 10
431.843308
 20
236.138739
 30
0.0
 11
431.843308
 21
233.138739
 31
0.0
  0
LINE
  5
ED
  8
1
  6
CONTINUOUS
 62
     2
 10
420.743308
 20
234.788739
 30
0.0
 11
421.793308
 21
236.138739
 31
0.0
  0
LINE
  5
EE
  8
1
  6
CONTINUOUS
 62
     2
 10
422.093308
 20
233.138739
 30
0.0
 11
422.843308
 21
233.138739
 31
0.0
  0
LINE
  5
EF
  8
1
  6
CONTINUOUS
 62
     2
 10
421.793308
 20
236.138739
 30
0.0
 11
420.893308
 21
236.138739
 31
0.0
  0
LINE
  5
F0
  8
1
  6
CONTINUOUS
 62
     2
 10
420.893308
 20
236.138739
 30
0.0
 11
419.843308
 21
234.788739
 31
0.0
  0
ARC
  5
F1
  8
1
  6
CONTINUOUS
 62
     2
 10
424.043308
 20
234.188739
 30
0.0
 40
0.3
 50
180.0
 51
270.0
  0
LINE
  5
F2
  8
1
  6
CONTINUOUS
 62
     2
 10
422.843308
 20
236.138739
 30
0.0
 11
422.093308
 21
236.138739
 31
0.0
  0
LINE
  5
F3
  8
1
  6
CONTINUOUS
 62
     2
 10
421.043308
 20
233.138739
 30
0.0
 11
421.943308
 21
233.138739
 31
0.0
  0
ARC
  5
F4
  8
1
  6
CONTINUOUS
 62
     2
 10
423.893308
 20
235.238739
 30
0.0
 40
0.9
 50
90.0
 51
180.0
  0
LINE
  5
F5
  8
1
  6
CONTINUOUS
 62
     2
 10
421.943308
 20
233.138739
 30
0.0
 11
420.743308
 21
234.788739
 31
0.0
  0
LINE
  5
F6
  8
1
  6
CONTINUOUS
 62
     2
 10
422.843308
 20
233.138739
 30
0.0
 11
422.843308
 21
236.138739
 31
0.0
  0
LINE
  5
F7
  8
1
  6
CONTINUOUS
 62
     2
 10
419.843308
 20
236.138739
 30
0.0
 11
419.093308
 21
236.138739
 31
0.0
  0
LINE
  5
F8
  8
1
  6
CONTINUOUS
 62
     2
 10
419.843308
 20
234.788739
 30
0.0
 11
421.043308
 21
233.138739
 31
0.0
  0
LINE
  5
F9
  8
1
  6
CONTINUOUS
 62
     2
 10
418.061308
 20
233.588739
 30
0.0
 11
418.223308
 21
233.138739
 31
0.0
  0
LINE
  5
FA
  8
1
  6
CONTINUOUS
 62
     2
 10
426.893308
 20
233.888739
 30
0.0
 11
426.893308
 21
234.338739
 31
0.0
  0
LINE
  5
FB
  8
1
  6
CONTINUOUS
 62
     2
 10
428.693308
 20
233.888739
 30
0.0
 11
426.893308
 21
233.888739
 31
0.0
  0
LINE
  5
FC
  8
1
  6
CONTINUOUS
 62
     2
 10
417.443308
 20
235.305406
 30
0.0
 11
417.802108
 21
234.308739
 31
0.0
  0
LINE
  5
FD
  8
1
  6
CONTINUOUS
 62
     2
 10
418.973308
 20
233.138739
 30
0.0
 11
418.223308
 21
233.138739
 31
0.0
  0
LINE
  5
FE
  8
1
  6
CONTINUOUS
 62
     2
 10
417.443308
 20
235.305406
 30
0.0
 11
417.084508
 21
234.308739
 31
0.0
  0
ARC
  5
FF
  8
1
  6
CONTINUOUS
 62
     2
 10
424.943308
 20
234.188739
 30
0.0
 40
0.3
 50
270.0
 51
0.0
  0
LINE
  5
100
  8
1
  6
CONTINUOUS
 62
     2
 10
419.843308
 20
233.138739
 30
0.0
 11
419.843308
 21
236.138739
 31
0.0
  0
LINE
  5
101
  8
1
  6
CONTINUOUS
 62
     2
 10
415.913308
 20
233.138739
 30
0.0
 11
416.663308
 21
233.138739
 31
0.0
  0
LINE
  5
102
  8
1
  6
CONTINUOUS
 62
     2
 10
416.993308
 20
236.138739
 30
0.0
 11
417.893308
 21
236.138739
 31
0.0
  0
LINE
  5
103
  8
1
  6
CONTINUOUS
 62
     2
 10
417.893308
 20
236.138739
 30
0.0
 11
418.973308
 21
233.138739
 31
0.0
  0
LINE
  5
104
  8
1
  6
CONTINUOUS
 62
     2
 10
416.993308
 20
236.138739
 30
0.0
 11
415.913308
 21
233.138739
 31
0.0
  0
LINE
  5
105
  8
1
  6
CONTINUOUS
 62
     2
 10
422.093308
 20
236.138739
 30
0.0
 11
422.093308
 21
233.138739
 31
0.0
  0
LINE
  5
106
  8
1
  6
CONTINUOUS
 62
     2
 10
429.593308
 20
235.088739
 30
0.0
 11
430.943308
 21
233.138739
 31
0.0
  0
LINE
  5
107
  8
1
  6
CONTINUOUS
 62
     2
 10
417.084508
 20
234.308739
 30
0.0
 11
417.802108
 21
234.308739
 31
0.0
  0
LINE
  5
108
  8
1
  6
CONTINUOUS
 62
     2
 10
416.825308
 20
233.588739
 30
0.0
 11
416.663308
 21
233.138739
 31
0.0
  0
LINE
  5
109
  8
1
  6
CONTINUOUS
 62
     2
 10
418.061308
 20
233.588739
 30
0.0
 11
416.825308
 21
233.588739
 31
0.0
  0
LINE
  5
10A
  8
1
  6
CONTINUOUS
 62
     2
 10
425.093308
 20
236.138739
 30
0.0
 11
423.893308
 21
236.138739
 31
0.0
  0
LINE
  5
10B
  8
1
  6
CONTINUOUS
 62
     2
 10
416.693308
 20
235.478739
 30
0.0
 11
416.693308
 21
236.138739
 31
0.0
  0
LINE
  5
10C
  8
1
  6
CONTINUOUS
 62
     2
 10
415.643308
 20
235.478739
 30
0.0
 11
416.693308
 21
235.478739
 31
0.0
  0
LINE
  5
10D
  8
1
  6
CONTINUOUS
 62
     2
 10
415.643308
 20
233.138739
 30
0.0
 11
415.643308
 21
235.478739
 31
0.0
  0
LINE
  5
10E
  8
1
  6
CONTINUOUS
 62
     2
 10
414.893308
 20
233.138739
 30
0.0
 11
415.643308
 21
233.138739
 31
0.0
  0
LINE
  5
10F
  8
1
  6
CONTINUOUS
 62
     2
 10
414.893308
 20
235.478739
 30
0.0
 11
414.893308
 21
233.138739
 31
0.0
  0
LINE
  5
110
  8
1
  6
CONTINUOUS
 62
     2
 10
413.843308
 20
235.478739
 30
0.0
 11
414.893308
 21
235.478739
 31
0.0
  0
LINE
  5
111
  8
1
  6
CONTINUOUS
 62
     2
 10
413.843308
 20
236.138739
 30
0.0
 11
413.843308
 21
235.478739
 31
0.0
  0
LINE
  5
112
  8
1
  6
CONTINUOUS
 62
     2
 10
416.693308
 20
236.138739
 30
0.0
 11
413.843308
 21
236.138739
 31
0.0
  0
LINE
  5
113
  8
1
  6
CONTINUOUS
 62
     2
 10
419.093308
 20
233.138739
 30
0.0
 11
419.843308
 21
233.138739
 31
0.0
  0
LINE
  5
114
  8
1
  6
CONTINUOUS
 62
     2
 10
419.093308
 20
236.138739
 30
0.0
 11
419.093308
 21
233.138739
 31
0.0
  0
LINE
  5
115
  8
1
  6
CONTINUOUS
 62
     2
 10
422.993308
 20
235.238739
 30
0.0
 11
422.993308
 21
234.038739
 31
0.0
  0
ARC
  5
116
  8
1
  6
CONTINUOUS
 62
     2
 10
424.043308
 20
235.088739
 30
0.0
 40
0.3
 50
90.0
 51
180.0
  0
LINE
  5
117
  8
1
  6
CONTINUOUS
 62
     2
 10
428.543308
 20
235.013739
 30
0.0
 11
426.893308
 21
235.013739
 31
0.0
  0
LINE
  5
118
  8
1
  6
CONTINUOUS
 62
     2
 10
426.893308
 20
235.013739
 30
0.0
 11
426.893308
 21
235.478739
 31
0.0
  0
LINE
  5
119
  8
1
  6
CONTINUOUS
 62
     2
 10
426.893308
 20
234.338739
 30
0.0
 11
428.543308
 21
234.338739
 31
0.0
  0
LINE
  5
11A
  8
1
  6
CONTINUOUS
 62
     2
 10
423.893308
 20
233.138739
 30
0.0
 11
425.093308
 21
233.138739
 31
0.0
  0
LINE
  5
11B
  8
1
  6
CONTINUOUS
 62
     2
 10
428.543308
 20
234.338739
 30
0.0
 11
428.543308
 21
235.013739
 31
0.0
  0
LINE
  5
11C
  8
1
  6
CONTINUOUS
 62
     2
 10
426.893308
 20
235.478739
 30
0.0
 11
428.693308
 21
235.478739
 31
0.0
  0
LINE
  5
11D
  8
1
  6
CONTINUOUS
 62
     2
 10
428.693308
 20
235.478739
 30
0.0
 11
428.693308
 21
236.138739
 31
0.0
  0
ENDBLK
  5
11E
  8
0
  0
BLOCK
  8
0
  2
BLK706
 70
     0
 10
422.843308
 20
233.138739
 30
0.0
  3
BLK706
  1

  0
INSERT
  5
121
  8
1
  6
CONTINUOUS
 62
     7
  2
BLK705
 10
422.843308
 20
233.138739
 30
0.0
  0
ENDBLK
  5
122
  8
0
  0
BLOCK
  8
0
  2
BLK108
 70
     0
 10
0.0
 20
0.0
 30
0.0
  3
BLK108
  1

  0
LINE
  5
4EC
  8
1
  6
CONTINUOUS
 62
     2
 10
1.199998
 20
2.249925
 30
0.0
 11
2.099998
 21
2.249925
 31
0.0
  0
LINE
  5
4ED
  8
1
  6
CONTINUOUS
 62
     2
 10
2.099998
 20
0.749925
 30
0.0
 11
1.199998
 21
0.749925
 31
0.0
  0
LINE
  5
4EE
  8
1
  6
CONTINUOUS
 62
     2
 10
1.649998
 20
1.049925
 30
0.0
 11
2.399998
 21
1.049925
 31
0.0
  0
LINE
  5
4EF
  8
1
  6
CONTINUOUS
 62
     2
 10
3.149998
 20
1.649925
 30
0.0
 11
1.649998
 21
1.649925
 31
0.0
  0
LINE
  5
4F0
  8
1
  6
CONTINUOUS
 62
     2
 10
2.249998
 20
2.999925
 30
0.0
 11
1.049998
 21
2.999925
 31
0.0
  0
LINE
  5
4F1
  8
1
  6
CONTINUOUS
 62
     2
 10
1.049998
 20
-0.000075
 30
0.0
 11
2.249998
 21
-0.000075
 31
0.0
  0
LINE
  5
4F2
  8
1
  6
CONTINUOUS
 62
     2
 10
0.899998
 20
1.049925
 30
0.0
 11
0.899998
 21
1.949925
 31
0.0
  0
LINE
  5
4F3
  8
1
  6
CONTINUOUS
 62
     2
 10
-2.100002
 20
1.649925
 30
0.0
 11
-1.050002
 21
2.999925
 31
0.0
  0
LINE
  5
4F4
  8
1
  6
CONTINUOUS
 62
     2
 10
-1.950002
 20
2.999925
 30
0.0
 11
-3.000002
 21
1.649925
 31
0.0
  0
LINE
  5
4F5
  8
1
  6
CONTINUOUS
 62
     2
 10
-0.000002
 20
-0.000075
 30
0.0
 11
-0.000002
 21
2.999925
 31
0.0
  0
LINE
  5
4F6
  8
1
  6
CONTINUOUS
 62
     2
 10
-5.400002
 20
2.166592
 30
0.0
 11
-5.041202
 21
1.169925
 31
0.0
  0
LINE
  5
4F7
  8
1
  6
CONTINUOUS
 62
     2
 10
-5.400002
 20
2.166592
 30
0.0
 11
-5.758802
 21
1.169925
 31
0.0
  0
LINE
  5
4F8
  8
1
  6
CONTINUOUS
 62
     2
 10
-3.000002
 20
-0.000075
 30
0.0
 11
-3.000002
 21
2.999925
 31
0.0
  0
LINE
  5
4F9
  8
1
  6
CONTINUOUS
 62
     2
 10
-4.950002
 20
2.999925
 30
0.0
 11
-3.870002
 21
-0.000075
 31
0.0
  0
LINE
  5
4FA
  8
1
  6
CONTINUOUS
 62
     2
 10
-5.850002
 20
2.999925
 30
0.0
 11
-6.930002
 21
-0.000075
 31
0.0
  0
LINE
  5
4FB
  8
1
  6
CONTINUOUS
 62
     2
 10
-0.750002
 20
2.999925
 30
0.0
 11
-0.750002
 21
-0.000075
 31
0.0
  0
LINE
  5
4FC
  8
1
  6
CONTINUOUS
 62
     2
 10
-7.200002
 20
-0.000075
 30
0.0
 11
-7.200002
 21
2.339925
 31
0.0
  0
LINE
  5
4FD
  8
1
  6
CONTINUOUS
 62
     2
 10
-7.950002
 20
2.339925
 30
0.0
 11
-7.950002
 21
-0.000075
 31
0.0
  0
LINE
  5
4FE
  8
1
  6
CONTINUOUS
 62
     2
 10
-3.750002
 20
2.999925
 30
0.0
 11
-3.750002
 21
-0.000075
 31
0.0
  0
LINE
  5
4FF
  8
1
  6
CONTINUOUS
 62
     2
 10
0.149998
 20
2.099925
 30
0.0
 11
0.149998
 21
0.899925
 31
0.0
  0
LINE
  5
500
  8
1
  6
CONTINUOUS
 62
     2
 10
-3.870002
 20
-0.000075
 30
0.0
 11
-4.620002
 21
-0.000075
 31
0.0
  0
LINE
  5
501
  8
1
  6
CONTINUOUS
 62
     2
 10
-4.782002
 20
0.449925
 30
0.0
 11
-4.620002
 21
-0.000075
 31
0.0
  0
LINE
  5
502
  8
1
  6
CONTINUOUS
 62
     2
 10
-6.930002
 20
-0.000075
 30
0.0
 11
-6.180002
 21
-0.000075
 31
0.0
  0
LINE
  5
503
  8
1
  6
CONTINUOUS
 62
     2
 10
-5.758802
 20
1.169925
 30
0.0
 11
-5.041202
 21
1.169925
 31
0.0
  0
LINE
  5
504
  8
1
  6
CONTINUOUS
 62
     2
 10
-6.018002
 20
0.449925
 30
0.0
 11
-6.180002
 21
-0.000075
 31
0.0
  0
LINE
  5
505
  8
1
  6
CONTINUOUS
 62
     2
 10
-4.782002
 20
0.449925
 30
0.0
 11
-6.018002
 21
0.449925
 31
0.0
  0
LINE
  5
506
  8
1
  6
CONTINUOUS
 62
     2
 10
-7.950002
 20
-0.000075
 30
0.0
 11
-7.200002
 21
-0.000075
 31
0.0
  0
LINE
  5
507
  8
1
  6
CONTINUOUS
 62
     2
 10
1.649998
 20
1.649925
 30
0.0
 11
1.649998
 21
1.049925
 31
0.0
  0
ARC
  5
508
  8
1
  6
CONTINUOUS
 62
     2
 10
1.049998
 20
0.899925
 30
0.0
 40
0.9
 50
180.0
 51
270.0
  0
LINE
  5
509
  8
1
  6
CONTINUOUS
 62
     2
 10
-0.750002
 20
-0.000075
 30
0.0
 11
-0.000002
 21
-0.000075
 31
0.0
  0
ARC
  5
50A
  8
1
  6
CONTINUOUS
 62
     2
 10
1.199998
 20
1.049925
 30
0.0
 40
0.3
 50
180.0
 51
270.0
  0
LINE
  5
50B
  8
1
  6
CONTINUOUS
 62
     2
 10
-1.800002
 20
-0.000075
 30
0.0
 11
-0.900002
 21
-0.000075
 31
0.0
  0
LINE
  5
50C
  8
1
  6
CONTINUOUS
 62
     2
 10
-0.900002
 20
-0.000075
 30
0.0
 11
-2.100002
 21
1.649925
 31
0.0
  0
LINE
  5
50D
  8
1
  6
CONTINUOUS
 62
     2
 10
-3.000002
 20
1.649925
 30
0.0
 11
-1.800002
 21
-0.000075
 31
0.0
  0
LINE
  5
50E
  8
1
  6
CONTINUOUS
 62
     2
 10
-3.750002
 20
-0.000075
 30
0.0
 11
-3.000002
 21
-0.000075
 31
0.0
  0
LINE
  5
50F
  8
1
  6
CONTINUOUS
 62
     2
 10
-5.850002
 20
2.999925
 30
0.0
 11
-4.950002
 21
2.999925
 31
0.0
  0
LINE
  5
510
  8
1
  6
CONTINUOUS
 62
     2
 10
-6.150002
 20
2.339925
 30
0.0
 11
-6.150002
 21
2.999925
 31
0.0
  0
LINE
  5
511
  8
1
  6
CONTINUOUS
 62
     2
 10
-7.200002
 20
2.339925
 30
0.0
 11
-6.150002
 21
2.339925
 31
0.0
  0
LINE
  5
512
  8
1
  6
CONTINUOUS
 62
     2
 10
-9.000002
 20
2.339925
 30
0.0
 11
-7.950002
 21
2.339925
 31
0.0
  0
LINE
  5
513
  8
1
  6
CONTINUOUS
 62
     2
 10
-9.000002
 20
2.999925
 30
0.0
 11
-9.000002
 21
2.339925
 31
0.0
  0
LINE
  5
514
  8
1
  6
CONTINUOUS
 62
     2
 10
-6.150002
 20
2.999925
 30
0.0
 11
-9.000002
 21
2.999925
 31
0.0
  0
LINE
  5
515
  8
1
  6
CONTINUOUS
 62
     2
 10
-1.050002
 20
2.999925
 30
0.0
 11
-1.950002
 21
2.999925
 31
0.0
  0
LINE
  5
516
  8
1
  6
CONTINUOUS
 62
     2
 10
-0.000002
 20
2.999925
 30
0.0
 11
-0.750002
 21
2.999925
 31
0.0
  0
ARC
  5
517
  8
1
  6
CONTINUOUS
 62
     2
 10
1.049998
 20
2.099925
 30
0.0
 40
0.9
 50
90.0
 51
180.0
  0
LINE
  5
518
  8
1
  6
CONTINUOUS
 62
     2
 10
-3.000002
 20
2.999925
 30
0.0
 11
-3.750002
 21
2.999925
 31
0.0
  0
ARC
  5
519
  8
1
  6
CONTINUOUS
 62
     2
 10
1.199998
 20
1.949925
 30
0.0
 40
0.3
 50
90.0
 51
180.0
  0
LINE
  5
51A
  8
1
  6
CONTINUOUS
 62
     2
 10
6.749998
 20
-0.000075
 30
0.0
 11
6.749998
 21
1.949925
 31
0.0
  0
LINE
  5
51B
  8
1
  6
CONTINUOUS
 62
     2
 10
5.999998
 20
2.999925
 30
0.0
 11
5.999998
 21
-0.000075
 31
0.0
  0
LINE
  5
51C
  8
1
  6
CONTINUOUS
 62
     2
 10
6.899998
 20
2.999925
 30
0.0
 11
8.249998
 21
1.049925
 31
0.0
  0
LINE
  5
51D
  8
1
  6
CONTINUOUS
 62
     2
 10
8.249998
 20
2.999925
 30
0.0
 11
8.249998
 21
1.049925
 31
0.0
  0
LINE
  5
51E
  8
1
  6
CONTINUOUS
 62
     2
 10
3.149998
 20
1.799925
 30
0.0
 11
3.149998
 21
2.099925
 31
0.0
  0
LINE
  5
51F
  8
1
  6
CONTINUOUS
 62
     2
 10
2.399998
 20
1.949925
 30
0.0
 11
2.399998
 21
1.799925
 31
0.0
  0
LINE
  5
520
  8
1
  6
CONTINUOUS
 62
     2
 10
3.299998
 20
2.999925
 30
0.0
 11
3.299998
 21
-0.000075
 31
0.0
  0
LINE
  5
521
  8
1
  6
CONTINUOUS
 62
     2
 10
8.999998
 20
2.999925
 30
0.0
 11
8.999998
 21
-0.000075
 31
0.0
  0
LINE
  5
522
  8
1
  6
CONTINUOUS
 62
     2
 10
6.749998
 20
1.949925
 30
0.0
 11
8.099998
 21
-0.000075
 31
0.0
  0
LINE
  5
523
  8
1
  6
CONTINUOUS
 62
     2
 10
4.049998
 20
1.874925
 30
0.0
 11
4.049998
 21
2.339925
 31
0.0
  0
LINE
  5
524
  8
1
  6
CONTINUOUS
 62
     2
 10
5.849998
 20
-0.000075
 30
0.0
 11
5.849998
 21
0.749925
 31
0.0
  0
LINE
  5
525
  8
1
  6
CONTINUOUS
 62
     2
 10
5.999998
 20
-0.000075
 30
0.0
 11
6.749998
 21
-0.000075
 31
0.0
  0
LINE
  5
526
  8
1
  6
CONTINUOUS
 62
     2
 10
2.399998
 20
1.799925
 30
0.0
 11
3.149998
 21
1.799925
 31
0.0
  0
LINE
  5
527
  8
1
  6
CONTINUOUS
 62
     2
 10
3.149998
 20
0.899925
 30
0.0
 11
3.149998
 21
1.649925
 31
0.0
  0
LINE
  5
528
  8
1
  6
CONTINUOUS
 62
     2
 10
3.299998
 20
-0.000075
 30
0.0
 11
5.849998
 21
-0.000075
 31
0.0
  0
ARC
  5
529
  8
1
  6
CONTINUOUS
 62
     2
 10
2.249998
 20
0.899925
 30
0.0
 40
0.9
 50
270.0
 51
0.0
  0
LINE
  5
52A
  8
1
  6
CONTINUOUS
 62
     2
 10
4.049998
 20
0.749925
 30
0.0
 11
4.049998
 21
1.199925
 31
0.0
  0
LINE
  5
52B
  8
1
  6
CONTINUOUS
 62
     2
 10
5.849998
 20
0.749925
 30
0.0
 11
4.049998
 21
0.749925
 31
0.0
  0
ARC
  5
52C
  8
1
  6
CONTINUOUS
 62
     2
 10
2.099998
 20
1.049925
 30
0.0
 40
0.3
 50
270.0
 51
0.0
  0
LINE
  5
52D
  8
1
  6
CONTINUOUS
 62
     2
 10
4.049998
 20
1.199925
 30
0.0
 11
5.699998
 21
1.199925
 31
0.0
  0
LINE
  5
52E
  8
1
  6
CONTINUOUS
 62
     2
 10
5.699998
 20
1.199925
 30
0.0
 11
5.699998
 21
1.874925
 31
0.0
  0
LINE
  5
52F
  8
1
  6
CONTINUOUS
 62
     2
 10
5.699998
 20
1.874925
 30
0.0
 11
4.049998
 21
1.874925
 31
0.0
  0
LINE
  5
530
  8
1
  6
CONTINUOUS
 62
     2
 10
8.999998
 20
-0.000075
 30
0.0
 11
8.099998
 21
-0.000075
 31
0.0
  0
LINE
  5
531
  8
1
  6
CONTINUOUS
 62
     2
 10
6.899998
 20
2.999925
 30
0.0
 11
5.999998
 21
2.999925
 31
0.0
  0
ARC
  5
532
  8
1
  6
CONTINUOUS
 62
     2
 10
2.099998
 20
1.949925
 30
0.0
 40
0.3
 50
0.0
 51
90.0
  0
ARC
  5
533
  8
1
  6
CONTINUOUS
 62
     2
 10
2.249998
 20
2.099925
 30
0.0
 40
0.9
 50
0.0
 51
90.0
  0
LINE
  5
534
  8
1
  6
CONTINUOUS
 62
     2
 10
5.849998
 20
2.999925
 30
0.0
 11
3.299998
 21
2.999925
 31
0.0
  0
LINE
  5
535
  8
1
  6
CONTINUOUS
 62
     2
 10
4.049998
 20
2.339925
 30
0.0
 11
5.849998
 21
2.339925
 31
0.0
  0
LINE
  5
536
  8
1
  6
CONTINUOUS
 62
     2
 10
5.849998
 20
2.339925
 30
0.0
 11
5.849998
 21
2.999925
 31
0.0
  0
LINE
  5
537
  8
1
  6
CONTINUOUS
 62
     2
 10
8.999998
 20
2.999925
 30
0.0
 11
8.249998
 21
2.999925
 31
0.0
  0
ENDBLK
  5
538
  8
0
  0
BLOCK
  8
0
  2
BLK106
 70
     0
 10
93.551087
 20
179.254348
 30
0.0
  3
BLK106
  1

  0
LINE
  5
563
  8
1
  6
CONTINUOUS
 62
     2
 10
99.051087
 20
181.254348
 30
0.0
 11
99.051087
 21
179.954348
 31
0.0
  0
LINE
  5
564
  8
1
  6
CONTINUOUS
 62
     2
 10
98.151087
 20
181.254348
 30
0.0
 11
99.051087
 21
179.954348
 31
0.0
  0
LINE
  5
565
  8
1
  6
CONTINUOUS
 62
     2
 10
98.151087
 20
181.254348
 30
0.0
 11
97.551087
 21
181.254348
 31
0.0
  0
LINE
  5
566
  8
1
  6
CONTINUOUS
 62
     2
 10
97.551087
 20
181.254348
 30
0.0
 11
97.551087
 21
179.254348
 31
0.0
  0
LINE
  5
567
  8
1
  6
CONTINUOUS
 62
     2
 10
97.551087
 20
179.254348
 30
0.0
 11
98.051087
 21
179.254348
 31
0.0
  0
LINE
  5
568
  8
1
  6
CONTINUOUS
 62
     2
 10
98.051087
 20
179.254348
 30
0.0
 11
98.051087
 21
180.554348
 31
0.0
  0
LINE
  5
569
  8
1
  6
CONTINUOUS
 62
     2
 10
97.451087
 20
179.254348
 30
0.0
 11
97.451087
 21
179.754348
 31
0.0
  0
LINE
  5
56A
  8
1
  6
CONTINUOUS
 62
     2
 10
99.551087
 20
181.254348
 30
0.0
 11
99.051087
 21
181.254348
 31
0.0
  0
LINE
  5
56B
  8
1
  6
CONTINUOUS
 62
     2
 10
99.551087
 20
179.254348
 30
0.0
 11
98.951087
 21
179.254348
 31
0.0
  0
LINE
  5
56C
  8
1
  6
CONTINUOUS
 62
     2
 10
95.651087
 20
180.454348
 30
0.0
 11
95.651087
 21
180.654348
 31
0.0
  0
LINE
  5
56D
  8
1
  6
CONTINUOUS
 62
     2
 10
95.151087
 20
180.454348
 30
0.0
 11
95.651087
 21
180.454348
 31
0.0
  0
LINE
  5
56E
  8
1
  6
CONTINUOUS
 62
     2
 10
95.151087
 20
180.554348
 30
0.0
 11
95.151087
 21
180.454348
 31
0.0
  0
LINE
  5
56F
  8
1
  6
CONTINUOUS
 62
     2
 10
94.351087
 20
180.754348
 30
0.0
 11
94.951087
 21
180.754348
 31
0.0
  0
LINE
  5
570
  8
1
  6
CONTINUOUS
 62
     2
 10
94.151087
 20
179.954348
 30
0.0
 11
94.151087
 21
180.554348
 31
0.0
  0
LINE
  5
571
  8
1
  6
CONTINUOUS
 62
     2
 10
94.951087
 20
179.754348
 30
0.0
 11
94.351087
 21
179.754348
 31
0.0
  0
LINE
  5
572
  8
1
  6
CONTINUOUS
 62
     2
 10
94.651087
 20
179.954348
 30
0.0
 11
95.151087
 21
179.954348
 31
0.0
  0
LINE
  5
573
  8
1
  6
CONTINUOUS
 62
     2
 10
94.651087
 20
180.354348
 30
0.0
 11
94.651087
 21
179.954348
 31
0.0
  0
LINE
  5
574
  8
1
  6
CONTINUOUS
 62
     2
 10
95.651087
 20
180.354348
 30
0.0
 11
94.651087
 21
180.354348
 31
0.0
  0
LINE
  5
575
  8
1
  6
CONTINUOUS
 62
     2
 10
95.651087
 20
179.854348
 30
0.0
 11
95.651087
 21
180.354348
 31
0.0
  0
LINE
  5
576
  8
1
  6
CONTINUOUS
 62
     2
 10
95.751087
 20
179.254348
 30
0.0
 11
97.451087
 21
179.254348
 31
0.0
  0
ARC
  5
577
  8
1
  6
CONTINUOUS
 62
     2
 10
95.051087
 20
179.854348
 30
0.0
 40
0.6
 50
270.0
 51
0.0
  0
ARC
  5
578
  8
1
  6
CONTINUOUS
 62
     2
 10
94.251087
 20
179.854348
 30
0.0
 40
0.6
 50
180.0
 51
270.0
  0
ARC
  5
579
  8
1
  6
CONTINUOUS
 62
     2
 10
94.951087
 20
180.554348
 30
0.0
 40
0.2
 50
0.0
 51
90.0
  0
ARC
  5
57A
  8
1
  6
CONTINUOUS
 62
     2
 10
95.051087
 20
180.654348
 30
0.0
 40
0.6
 50
0.0
 51
90.0
  0
LINE
  5
57B
  8
1
  6
CONTINUOUS
 62
     2
 10
95.751087
 20
181.254348
 30
0.0
 11
95.751087
 21
179.254348
 31
0.0
  0
LINE
  5
57C
  8
1
  6
CONTINUOUS
 62
     2
 10
97.451087
 20
181.254348
 30
0.0
 11
95.751087
 21
181.254348
 31
0.0
  0
LINE
  5
57D
  8
1
  6
CONTINUOUS
 62
     2
 10
99.551087
 20
181.254348
 30
0.0
 11
99.551087
 21
179.254348
 31
0.0
  0
LINE
  5
57E
  8
1
  6
CONTINUOUS
 62
     2
 10
92.151087
 20
180.354348
 30
0.0
 11
92.851087
 21
181.254348
 31
0.0
  0
LINE
  5
57F
  8
1
  6
CONTINUOUS
 62
     2
 10
93.051087
 20
179.254348
 30
0.0
 11
93.551087
 21
179.254348
 31
0.0
  0
LINE
  5
580
  8
1
  6
CONTINUOUS
 62
     2
 10
92.851087
 20
181.254348
 30
0.0
 11
92.251087
 21
181.254348
 31
0.0
  0
LINE
  5
581
  8
1
  6
CONTINUOUS
 62
     2
 10
92.251087
 20
181.254348
 30
0.0
 11
91.551087
 21
180.354348
 31
0.0
  0
ARC
  5
582
  8
1
  6
CONTINUOUS
 62
     2
 10
94.351087
 20
179.954348
 30
0.0
 40
0.2
 50
180.0
 51
270.0
  0
LINE
  5
583
  8
1
  6
CONTINUOUS
 62
     2
 10
93.551087
 20
181.254348
 30
0.0
 11
93.051087
 21
181.254348
 31
0.0
  0
LINE
  5
584
  8
1
  6
CONTINUOUS
 62
     2
 10
92.351087
 20
179.254348
 30
0.0
 11
92.951087
 21
179.254348
 31
0.0
  0
ARC
  5
585
  8
1
  6
CONTINUOUS
 62
     2
 10
94.251087
 20
180.654348
 30
0.0
 40
0.6
 50
90.0
 51
180.0
  0
LINE
  5
586
  8
1
  6
CONTINUOUS
 62
     2
 10
92.951087
 20
179.254348
 30
0.0
 11
92.151087
 21
180.354348
 31
0.0
  0
LINE
  5
587
  8
1
  6
CONTINUOUS
 62
     2
 10
93.551087
 20
179.254348
 30
0.0
 11
93.551087
 21
181.254348
 31
0.0
  0
LINE
  5
588
  8
1
  6
CONTINUOUS
 62
     2
 10
91.551087
 20
181.254348
 30
0.0
 11
91.051087
 21
181.254348
 31
0.0
  0
LINE
  5
589
  8
1
  6
CONTINUOUS
 62
     2
 10
91.551087
 20
180.354348
 30
0.0
 11
92.351087
 21
179.254348
 31
0.0
  0
LINE
  5
58A
  8
1
  6
CONTINUOUS
 62
     2
 10
90.363087
 20
179.554348
 30
0.0
 11
90.471087
 21
179.254348
 31
0.0
  0
LINE
  5
58B
  8
1
  6
CONTINUOUS
 62
     2
 10
96.251087
 20
179.754348
 30
0.0
 11
96.251087
 21
180.054348
 31
0.0
  0
LINE
  5
58C
  8
1
  6
CONTINUOUS
 62
     2
 10
97.451087
 20
179.754348
 30
0.0
 11
96.251087
 21
179.754348
 31
0.0
  0
LINE
  5
58D
  8
1
  6
CONTINUOUS
 62
     2
 10
89.951087
 20
180.698792
 30
0.0
 11
90.190287
 21
180.034348
 31
0.0
  0
LINE
  5
58E
  8
1
  6
CONTINUOUS
 62
     2
 10
90.971087
 20
179.254348
 30
0.0
 11
90.471087
 21
179.254348
 31
0.0
  0
LINE
  5
58F
  8
1
  6
CONTINUOUS
 62
     2
 10
89.951087
 20
180.698792
 30
0.0
 11
89.711887
 21
180.034348
 31
0.0
  0
ARC
  5
590
  8
1
  6
CONTINUOUS
 62
     2
 10
94.951087
 20
179.954348
 30
0.0
 40
0.2
 50
270.0
 51
0.0
  0
LINE
  5
591
  8
1
  6
CONTINUOUS
 62
     2
 10
91.551087
 20
179.254348
 30
0.0
 11
91.551087
 21
181.254348
 31
0.0
  0
LINE
  5
592
  8
1
  6
CONTINUOUS
 62
     2
 10
88.931087
 20
179.254348
 30
0.0
 11
89.431087
 21
179.254348
 31
0.0
  0
LINE
  5
593
  8
1
  6
CONTINUOUS
 62
     2
 10
89.651087
 20
181.254348
 30
0.0
 11
90.251087
 21
181.254348
 31
0.0
  0
LINE
  5
594
  8
1
  6
CONTINUOUS
 62
     2
 10
90.251087
 20
181.254348
 30
0.0
 11
90.971087
 21
179.254348
 31
0.0
  0
LINE
  5
595
  8
1
  6
CONTINUOUS
 62
     2
 10
89.651087
 20
181.254348
 30
0.0
 11
88.931087
 21
179.254348
 31
0.0
  0
LINE
  5
596
  8
1
  6
CONTINUOUS
 62
     2
 10
93.051087
 20
181.254348
 30
0.0
 11
93.051087
 21
179.254348
 31
0.0
  0
LINE
  5
597
  8
1
  6
CONTINUOUS
 62
     2
 10
98.051087
 20
180.554348
 30
0.0
 11
98.951087
 21
179.254348
 31
0.0
  0
LINE
  5
598
  8
1
  6
CONTINUOUS
 62
     2
 10
89.711887
 20
180.034348
 30
0.0
 11
90.190287
 21
180.034348
 31
0.0
  0
LINE
  5
599
  8
1
  6
CONTINUOUS
 62
     2
 10
89.539087
 20
179.554348
 30
0.0
 11
89.431087
 21
179.254348
 31
0.0
  0
LINE
  5
59A
  8
1
  6
CONTINUOUS
 62
     2
 10
90.363087
 20
179.554348
 30
0.0
 11
89.539087
 21
179.554348
 31
0.0
  0
LINE
  5
59B
  8
1
  6
CONTINUOUS
 62
     2
 10
95.051087
 20
181.254348
 30
0.0
 11
94.251087
 21
181.254348
 31
0.0
  0
LINE
  5
59C
  8
1
  6
CONTINUOUS
 62
     2
 10
89.451087
 20
180.814348
 30
0.0
 11
89.451087
 21
181.254348
 31
0.0
  0
LINE
  5
59D
  8
1
  6
CONTINUOUS
 62
     2
 10
88.751087
 20
180.814348
 30
0.0
 11
89.451087
 21
180.814348
 31
0.0
  0
LINE
  5
59E
  8
1
  6
CONTINUOUS
 62
     2
 10
88.751087
 20
179.254348
 30
0.0
 11
88.751087
 21
180.814348
 31
0.0
  0
LINE
  5
59F
  8
1
  6
CONTINUOUS
 62
     2
 10
88.251087
 20
179.254348
 30
0.0
 11
88.751087
 21
179.254348
 31
0.0
  0
LINE
  5
5A0
  8
1
  6
CONTINUOUS
 62
     2
 10
88.251087
 20
180.814348
 30
0.0
 11
88.251087
 21
179.254348
 31
0.0
  0
LINE
  5
5A1
  8
1
  6
CONTINUOUS
 62
     2
 10
87.551087
 20
180.814348
 30
0.0
 11
88.251087
 21
180.814348
 31
0.0
  0
LINE
  5
5A2
  8
1
  6
CONTINUOUS
 62
     2
 10
87.551087
 20
181.254348
 30
0.0
 11
87.551087
 21
180.814348
 31
0.0
  0
LINE
  5
5A3
  8
1
  6
CONTINUOUS
 62
     2
 10
89.451087
 20
181.254348
 30
0.0
 11
87.551087
 21
181.254348
 31
0.0
  0
LINE
  5
5A4
  8
1
  6
CONTINUOUS
 62
     2
 10
91.051087
 20
179.254348
 30
0.0
 11
91.551087
 21
179.254348
 31
0.0
  0
LINE
  5
5A5
  8
1
  6
CONTINUOUS
 62
     2
 10
91.051087
 20
181.254348
 30
0.0
 11
91.051087
 21
179.254348
 31
0.0
  0
LINE
  5
5A6
  8
1
  6
CONTINUOUS
 62
     2
 10
93.651087
 20
180.654348
 30
0.0
 11
93.651087
 21
179.854348
 31
0.0
  0
ARC
  5
5A7
  8
1
  6
CONTINUOUS
 62
     2
 10
94.351087
 20
180.554348
 30
0.0
 40
0.2
 50
90.0
 51
180.0
  0
LINE
  5
5A8
  8
1
  6
CONTINUOUS
 62
     2
 10
94.251087
 20
179.254348
 30
0.0
 11
95.051087
 21
179.254348
 31
0.0
  0
LINE
  5
5A9
  8
1
  6
CONTINUOUS
 62
     2
 10
96.251087
 20
180.054348
 30
0.0
 11
97.351087
 21
180.054348
 31
0.0
  0
LINE
  5
5AA
  8
1
  6
CONTINUOUS
 62
     2
 10
97.351087
 20
180.054348
 30
0.0
 11
97.351087
 21
180.504348
 31
0.0
  0
LINE
  5
5AB
  8
1
  6
CONTINUOUS
 62
     2
 10
97.351087
 20
180.504348
 30
0.0
 11
96.251087
 21
180.504348
 31
0.0
  0
LINE
  5
5AC
  8
1
  6
CONTINUOUS
 62
     2
 10
96.251087
 20
180.504348
 30
0.0
 11
96.251087
 21
180.814348
 31
0.0
  0
LINE
  5
5AD
  8
1
  6
CONTINUOUS
 62
     2
 10
96.251087
 20
180.814348
 30
0.0
 11
97.451087
 21
180.814348
 31
0.0
  0
LINE
  5
5AE
  8
1
  6
CONTINUOUS
 62
     2
 10
97.451087
 20
180.814348
 30
0.0
 11
97.451087
 21
181.254348
 31
0.0
  0
ENDBLK
  5
5B0
  8
0
  0
BLOCK
  8
0
  2
BLK107
 70
     0
 10
93.551087
 20
179.254348
 30
0.0
  3
BLK107
  1

  0
INSERT
  5
5B2
  8
1
  6
CONTINUOUS
 62
     7
  2
BLK106
 10
93.551087
 20
179.254348
 30
0.0
  0
ENDBLK
  5
5B4
  8
0
  0
ENDSEC
  0
SECTION
  2
ENTITIES
  0
LINE
  5
123
  8
1
  6
CONTINUOUS
 62
     7
 10
351.963229
 20
218.138739
 30
0.0
 11
356.463229
 21
218.138739
 31
0.0
  0
LINE
  5
124
  8
1
  6
CONTINUOUS
 62
     7
 10
352.383229
 20
214.567856
 30
0.0
 11
351.963229
 21
214.373739
 31
0.0
  0
ARC
  5
125
  8
1
  6
CONTINUOUS
 62
     7
 10
351.963229
 20
213.638739
 30
0.0
 40
4.5
 50
90.0
 51
270.0
  0
LINE
  5
126
  8
1
  6
CONTINUOUS
 62
     7
 10
354.463229
 20
220.138739
 30
0.0
 11
351.963229
 21
220.138739
 31
0.0
  0
ARC
  5
127
  8
1
  6
CONTINUOUS
 62
     7
 10
351.963229
 20
213.638739
 30
0.0
 40
6.5
 50
90.0
 51
270.0
  0
LINE
  5
128
  8
1
  6
CONTINUOUS
 62
     7
 10
357.035951
 20
249.401513
 30
0.0
 11
354.463229
 21
227.138739
 31
0.0
  0
LINE
  5
129
  8
1
  6
CONTINUOUS
 62
     7
 10
354.463229
 20
218.138739
 30
0.0
 11
354.463229
 21
227.138739
 31
0.0
  0
LINE
  5
12A
  8
1
  6
CONTINUOUS
 62
     7
 10
356.463229
 20
218.138739
 30
0.0
 11
356.463229
 21
227.023561
 31
0.0
  0
ARC
  5
12B
  8
1
  6
CONTINUOUS
 62
     7
 10
367.963229
 20
-223.861261
 30
0.0
 40
496.0
 50
91.155235
 51
95.676205
  0
ARC
  5
12C
  8
1
  6
CONTINUOUS
 62
     7
 10
367.963229
 20
-223.861261
 30
0.0
 40
500.0
 50
91.145992
 51
96.301256
  0
CIRCLE
  5
12D
  8
1
  6
CONTINUOUS
 62
     7
 10
367.963229
 20
248.138739
 30
0.0
 40
4.05
  0
CIRCLE
  5
12E
  8
1
  6
CONTINUOUS
 62
     7
 10
367.963229
 20
248.138739
 30
0.0
 40
5.55
  0
LINE
  5
12F
  8
1
  6
CONTINUOUS
 62
     7
 10
351.543229
 20
212.709622
 30
0.0
 11
350.732863
 21
211.899257
 31
0.0
  0
LINE
  5
130
  8
1
  6
CONTINUOUS
 62
     7
 10
350.223746
 20
212.408374
 30
0.0
 11
350.732863
 21
211.899257
 31
0.0
  0
ARC
  5
131
  8
1
  6
CONTINUOUS
 62
     7
 10
362.963229
 20
309.138739
 30
0.0
 40
5.0
 50
90.0
 51
180.0
  0
LINE
  5
132
  8
1
  6
CONTINUOUS
 62
     7
 10
377.963229
 20
309.138739
 30
0.0
 11
377.963229
 21
271.706471
 31
0.0
  0
LINE
  5
133
  8
1
  6
CONTINUOUS
 62
     7
 10
362.963229
 20
314.138739
 30
0.0
 11
372.963229
 21
314.138739
 31
0.0
  0
LINE
  5
134
  8
1
  6
CONTINUOUS
 62
     7
 10
357.963229
 20
271.706471
 30
0.0
 11
357.963229
 21
309.138739
 31
0.0
  0
LINE
  5
135
  8
1
  6
CONTINUOUS
 62
     7
 10
342.463229
 20
255.251988
 30
0.0
 11
342.463229
 21
248.138739
 31
0.0
  0
LINE
  5
136
  8
1
  6
CONTINUOUS
 62
     7
 10
353.963229
 20
264.778267
 30
0.0
 11
344.963229
 21
259.582115
 31
0.0
  0
LINE
  5
137
  8
1
  6
CONTINUOUS
 62
     7
 10
355.849968
 20
239.138739
 30
0.0
 11
351.463229
 21
239.138739
 31
0.0
  0
ARC
  5
138
  8
1
  6
PHANTOM
 62
     5
 10
428.963229
 20
253.138739
 30
0.0
 40
5.0
 50
0.0
 51
90.0
  0
ARC
  5
139
  8
1
  6
PHANTOM
 62
     5
 10
428.963229
 20
243.138739
 30
0.0
 40
5.0
 50
270.0
 51
0.0
  0
LINE
  5
13A
  8
1
  6
PHANTOM
 62
     5
 10
308.764118
 20
238.138739
 30
0.0
 11
306.963229
 21
238.138739
 31
0.0
  0
LINE
  5
13B
  8
1
  6
PHANTOM
 62
     5
 10
301.963229
 20
243.138739
 30
0.0
 11
301.963229
 21
253.138739
 31
0.0
  0
LINE
  5
13C
  8
1
  6
PHANTOM
 62
     5
 10
306.963229
 20
258.138739
 30
0.0
 11
308.245079
 21
258.138739
 31
0.0
  0
ARC
  5
13D
  8
1
  6
PHANTOM
 62
     5
 10
306.963229
 20
243.138739
 30
0.0
 40
5.0
 50
180.0
 51
270.0
  0
ARC
  5
13E
  8
1
  6
PHANTOM
 62
     5
 10
306.963229
 20
253.138739
 30
0.0
 40
5.0
 50
90.0
 51
180.0
  0
LINE
  5
13F
  8
1
  6
CONTINUOUS
 62
     7
 10
356.463229
 20
227.023561
 30
0.0
 11
359.022728
 21
249.171918
 31
0.0
  0
LINE
  5
141
  8
1
  6
CONTINUOUS
 62
     4
 10
376.722367
 20
226.310312
 30
0.0
 11
358.621628
 21
226.310312
 31
0.0
  0
LINE
  5
142
  8
1
  6
HIDDEN
 62
     4
 10
381.463229
 20
227.138739
 30
0.0
 11
354.463229
 21
227.138739
 31
0.0
  0
ARC
  5
143
  8
1
  6
CONTINUOUS
 62
     7
 10
367.963229
 20
248.138739
 30
0.0
 40
9.0
 50
6.591953
 51
173.408047
  0
LINE
  5
144
  8
1
  6
CONTINUOUS
 62
     7
 10
379.463229
 20
227.023561
 30
0.0
 11
376.903729
 21
249.171918
 31
0.0
  0
LINE
  5
145
  8
1
  6
CONTINUOUS
 62
     7
 10
383.963229
 20
218.138739
 30
0.0
 11
379.463229
 21
218.138739
 31
0.0
  0
LINE
  5
146
  8
1
  6
CONTINUOUS
 62
     7
 10
383.963229
 20
207.138739
 30
0.0
 11
351.963229
 21
207.138739
 31
0.0
  0
LINE
  5
147
  8
1
  6
CONTINUOUS
 62
     7
 10
383.963229
 20
209.138739
 30
0.0
 11
351.963229
 21
209.138739
 31
0.0
  0
LINE
  5
148
  8
1
  6
CONTINUOUS
 62
     7
 10
352.698229
 20
213.638739
 30
0.0
 11
352.892345
 21
214.058739
 31
0.0
  0
ARC
  5
149
  8
1
  6
CONTINUOUS
 62
     7
 10
383.963229
 20
213.638739
 30
0.0
 40
4.5
 50
270.0
 51
90.0
  0
ARC
  5
14A
  8
1
  6
CONTINUOUS
 62
     7
 10
383.963229
 20
213.638739
 30
0.0
 40
6.5
 50
270.0
 51
90.0
  0
LINE
  5
14B
  8
1
  6
CONTINUOUS
 62
     7
 10
378.890506
 20
249.401513
 30
0.0
 11
381.463229
 21
227.138739
 31
0.0
  0
LINE
  5
14C
  8
1
  6
CONTINUOUS
 62
     7
 10
381.463229
 20
218.138739
 30
0.0
 11
381.463229
 21
227.138739
 31
0.0
  0
LINE
  5
14D
  8
1
  6
CONTINUOUS
 62
     7
 10
379.463229
 20
218.138739
 30
0.0
 11
379.463229
 21
227.023561
 31
0.0
  0
ARC
  5
14E
  8
1
  6
CONTINUOUS
 62
     7
 10
367.963229
 20
248.138739
 30
0.0
 40
11.0
 50
6.591953
 51
173.408047
  0
ARC
  5
14F
  8
1
  6
CONTINUOUS
 62
     7
 10
347.463229
 20
255.251988
 30
0.0
 40
5.0
 50
120.0
 51
180.0
  0
ARC
  5
150
  8
1
  6
CONTINUOUS
 62
     7
 10
349.963229
 20
271.706471
 30
0.0
 40
8.0
 50
300.0
 51
0.0
  0
ARC
  5
151
  8
1
  6
CONTINUOUS
 62
     7
 10
351.463229
 20
248.138739
 30
0.0
 40
9.0
 50
180.0
 51
270.0
  0
CIRCLE
  5
152
  8
1
  6
CONTINUOUS
 62
     7
 10
349.963229
 20
248.138739
 30
0.0
 40
3.25
  0
LINE
  5
153
  8
1
  6
CENTER
 62
     2
 10
349.963229
 20
253.981189
 30
0.0
 11
349.963229
 21
242.144355
 31
0.0
  0
LINE
  5
154
  8
1
  6
PHANTOM
 62
     5
 10
428.963229
 20
238.138739
 30
0.0
 11
427.364538
 21
238.138739
 31
0.0
  0
LINE
  5
155
  8
1
  6
CENTER
 62
     2
 10
385.963229
 20
253.981189
 30
0.0
 11
385.963229
 21
242.144355
 31
0.0
  0
CIRCLE
  5
156
  8
1
  6
CONTINUOUS
 62
     7
 10
385.963229
 20
248.138739
 30
0.0
 40
3.25
  0
ARC
  5
157
  8
1
  6
CONTINUOUS
 62
     7
 10
384.463229
 20
248.138739
 30
0.0
 40
9.0
 50
270.0
 51
0.0
  0
ARC
  5
158
  8
1
  6
CONTINUOUS
 62
     7
 10
388.463229
 20
255.251988
 30
0.0
 40
5.0
 50
0.0
 51
60.0
  0
ARC
  5
159
  8
1
  6
CONTINUOUS
 62
     7
 10
385.963229
 20
271.706471
 30
0.0
 40
8.0
 50
180.0
 51
240.0
  0
LINE
  5
15A
  8
1
  6
CONTINUOUS
 62
     7
 10
384.463229
 20
239.138739
 30
0.0
 11
380.076489
 21
239.138739
 31
0.0
  0
LINE
  5
15B
  8
1
  6
CONTINUOUS
 62
     7
 10
393.463229
 20
255.251988
 30
0.0
 11
393.463229
 21
248.138739
 31
0.0
  0
ARC
  5
15C
  8
1
  6
CONTINUOUS
 62
     7
 10
372.963229
 20
309.138739
 30
0.0
 40
5.0
 50
0.0
 51
90.0
  0
LINE
  5
15D
  8
1
  6
PHANTOM
 62
     5
 10
433.963229
 20
253.138739
 30
0.0
 11
433.963229
 21
243.138739
 31
0.0
  0
LINE
  5
15E
  8
1
  6
CONTINUOUS
 62
     7
 10
381.963229
 20
264.778267
 30
0.0
 11
390.963229
 21
259.582115
 31
0.0
  0
LINE
  5
15F
  8
1
  6
PHANTOM
 62
     5
 10
427.234779
 20
258.138739
 30
0.0
 11
428.963229
 21
258.138739
 31
0.0
  0
ARC
  5
160
  8
1
  6
PHANTOM
 62
     5
 10
169.14335
 20
236.907191
 30
0.0
 40
2.0
 50
196.307282
 51
270.0
  0
ARC
  5
161
  8
1
  6
PHANTOM
 62
     5
 10
169.915619
 20
242.138739
 30
0.0
 40
2.0
 50
189.062114
 51
270.0
  0
LINE
  5
162
  8
1
  6
PHANTOM
 62
     5
 10
168.307779
 20
240.698885
 30
0.0
 11
167.77387
 21
235.829072
 31
0.0
  0
LINE
  5
163
  8
1
  6
PHANTOM
 62
     5
 10
169.915619
 20
240.138739
 30
0.0
 11
171.391786
 21
240.138739
 31
0.0
  0
ARC
  5
164
  8
1
  6
CONTINUOUS
 62
     7
 10
48.838235
 20
218.138739
 30
0.0
 40
2.0
 50
90.0
 51
180.0
  0
ARC
  5
165
  8
1
  6
CONTINUOUS
 62
     7
 10
89.838235
 20
692.138739
 30
0.0
 40
486.0
 50
265.579065
 51
274.420935
  0
LINE
  5
166
  8
1
  6
CONTINUOUS
 62
     7
 10
46.838235
 20
213.566906
 30
0.0
 11
46.838235
 21
218.138739
 31
0.0
  0
LINE
  5
167
  8
1
  6
CONTINUOUS
 62
     7
 10
48.838235
 20
220.138739
 30
0.0
 11
70.838235
 21
220.138739
 31
0.0
  0
ARC
  5
168
  8
1
  6
CONTINUOUS
 62
     7
 10
130.838235
 20
218.138739
 30
0.0
 40
2.0
 50
0.0
 51
90.0
  0
LINE
  5
169
  8
1
  6
CONTINUOUS
 62
     7
 10
132.838235
 20
213.566906
 30
0.0
 11
132.838235
 21
218.138739
 31
0.0
  0
ARC
  5
16A
  8
1
  6
CONTINUOUS
 62
     7
 10
70.838235
 20
225.138739
 30
0.0
 40
5.0
 50
270.0
 51
289.993934
  0
ARC
  5
16B
  8
1
  6
CONTINUOUS
 62
     7
 10
323.316817
 20
255.601737
 30
0.0
 40
2.0
 50
159.286194
 51
305.555549
  0
ARC
  5
16C
  8
1
  6
PHANTOM
 62
     5
 10
207.534135
 20
248.138739
 30
0.0
 40
40.093999
 50
176.356917
 51
189.062114
  0
ARC
  5
16D
  8
1
  6
CONTINUOUS
 62
     7
 10
70.838235
 20
230.3905
 30
0.0
 40
10.0
 50
285.871984
 51
43.04908
  0
INSERT
  5
16E
  8
1
  6
CONTINUOUS
 62
     7
  2
BLK153
 10
77.67409
 20
206.343232
 30
0.0
 41
15.0
 42
15.0
  0
LINE
  5
16F
  8
1
  6
CONTINUOUS
 62
     7
 10
130.838235
 20
220.138739
 30
0.0
 11
108.838235
 21
220.138739
 31
0.0
  0
LINE
  5
170
  8
1
  6
CONTINUOUS
 62
     7
 10
77.338235
 20
239.26462
 30
0.0
 11
77.338235
 21
253.138739
 31
0.0
  0
ARC
  5
171
  8
1
  6
CONTINUOUS
 62
     7
 10
80.338235
 20
239.26462
 30
0.0
 40
3.0
 50
180.0
 51
223.04908
  0
ARC
  5
172
  8
1
  6
CONTINUOUS
 62
     7
 10
52.838235
 20
213.566906
 30
0.0
 40
6.0
 50
180.0
 51
265.579065
  0
LINE
  5
173
  8
1
  6
CONTINUOUS
 62
     7
 10
78.338235
 20
254.138739
 30
0.0
 11
83.738235
 21
254.138739
 31
0.0
  0
LINE
  5
174
  8
1
  6
CONTINUOUS
 62
     7
 10
101.338235
 20
254.138739
 30
0.0
 11
95.938235
 21
254.138739
 31
0.0
  0
ARC
  5
175
  8
1
  6
CONTINUOUS
 62
     7
 10
89.838235
 20
248.138739
 30
0.0
 40
8.5
 50
239.050277
 51
300.949723
  0
LINE
  5
176
  8
1
  6
CONTINUOUS
 62
     7
 10
84.738235
 20
253.138739
 30
0.0
 11
84.738235
 21
242.135407
 31
0.0
  0
LINE
  5
177
  8
1
  6
CONTINUOUS
 62
     7
 10
94.938235
 20
242.135407
 30
0.0
 11
94.938235
 21
253.138739
 31
0.0
  0
ARC
  5
178
  8
1
  6
CONTINUOUS
 62
     7
 10
108.838235
 20
225.138739
 30
0.0
 40
5.0
 50
250.013865
 51
270.0
  0
ARC
  5
179
  8
1
  6
CONTINUOUS
 62
     7
 10
108.838235
 20
230.3905
 30
0.0
 40
10.0
 50
136.95092
 51
254.131276
  0
ARC
  5
17A
  8
1
  6
CONTINUOUS
 62
     7
 10
102.00238
 20
206.343232
 30
0.0
 40
15.0
 50
70.013865
 51
74.131276
  0
LINE
  5
17B
  8
1
  6
CONTINUOUS
 62
     7
 10
102.338235
 20
239.26462
 30
0.0
 11
102.338235
 21
253.138739
 31
0.0
  0
ARC
  5
17C
  8
1
  6
CONTINUOUS
 62
     7
 10
99.338235
 20
239.26462
 30
0.0
 40
3.0
 50
316.95092
 51
0.0
  0
ARC
  5
17D
  8
1
  6
CONTINUOUS
 62
     7
 10
126.838235
 20
213.566906
 30
0.0
 40
6.0
 50
274.420935
 51
0.0
  0
ARC
  5
17E
  8
1
  6
CONTINUOUS
 62
     7
 10
78.338235
 20
253.138739
 30
0.0
 40
1.0
 50
90.0
 51
180.0
  0
ARC
  5
17F
  8
1
  6
CONTINUOUS
 62
     7
 10
83.738235
 20
253.138739
 30
0.0
 40
1.0
 50
0.0
 51
90.0
  0
ARC
  5
180
  8
1
  6
CONTINUOUS
 62
     7
 10
95.938235
 20
253.138739
 30
0.0
 40
1.0
 50
90.0
 51
180.0
  0
ARC
  5
181
  8
1
  6
CONTINUOUS
 62
     7
 10
101.338235
 20
253.138739
 30
0.0
 40
1.0
 50
0.0
 51
90.0
  0
ARC
  5
182
  8
1
  6
CONTINUOUS
 62
     7
 10
86.238235
 20
242.135407
 30
0.0
 40
1.5
 50
180.0
 51
239.050277
  0
ARC
  5
183
  8
1
  6
CONTINUOUS
 62
     7
 10
93.438235
 20
242.135407
 30
0.0
 40
1.5
 50
300.949723
 51
0.0
  0
ARC
  5
184
  8
1
  6
PHANTOM
 62
     5
 10
177.705708
 20
232.907191
 30
0.0
 40
2.0
 50
45.0
 51
90.0
  0
LINE
  5
185
  8
1
  6
CENTER
 62
     2
 10
80.838235
 20
220.638739
 30
0.0
 11
99.112463
 21
220.638739
 31
0.0
  0
LINE
  5
186
  8
1
  6
PHANTOM
 62
     5
 10
183.708668
 20
229.732658
 30
0.0
 11
179.119921
 21
234.321405
 31
0.0
  0
ARC
  5
187
  8
1
  6
PHANTOM
 62
     5
 10
169.989997
 20
236.907191
 30
0.0
 40
2.0
 50
270.0
 51
345.0
  0
ARC
  5
188
  8
1
  6
PHANTOM
 62
     5
 10
176.136215
 20
244.390376
 30
0.0
 40
2.0
 50
100.0
 51
165.0
  0
ARC
  5
189
  8
1
  6
PHANTOM
 62
     5
 10
193.534135
 20
-246.861261
 30
0.0
 40
500.0
 50
89.494415
 51
92.98492
  0
ARC
  5
18A
  8
1
  6
CONTINUOUS
 62
     7
 10
699.534135
 20
234.138739
 30
0.0
 40
500.0
 50
177.928617
 51
182.98492
  0
LINE
  5
18B
  8
1
  6
PHANTOM
 62
     5
 10
195.597308
 20
239.138739
 30
0.0
 11
191.534135
 21
239.138739
 31
0.0
  0
LINE
  5
18C
  8
1
  6
PHANTOM
 62
     5
 10
189.534135
 20
237.138739
 30
0.0
 11
189.534135
 21
231.138739
 31
0.0
  0
LINE
  5
18D
  8
1
  6
PHANTOM
 62
     5
 10
187.534135
 20
229.138739
 30
0.0
 11
171.967296
 21
229.138739
 31
0.0
  0
ARC
  5
18E
  8
1
  6
PHANTOM
 62
     5
 10
207.534135
 20
248.138739
 30
0.0
 40
42.0
 50
176.668736
 51
204.220943
  0
ARC
  5
18F
  8
1
  6
PHANTOM
 62
     5
 10
187.534135
 20
231.138739
 30
0.0
 40
2.0
 50
270.0
 51
0.0
  0
ARC
  5
190
  8
1
  6
PHANTOM
 62
     5
 10
191.534135
 20
237.138739
 30
0.0
 40
2.0
 50
90.0
 51
180.0
  0
ARC
  5
191
  8
1
  6
PHANTOM
 62
     5
 10
167.601725
 20
250.46309
 30
0.0
 40
2.0
 50
92.98492
 51
176.668736
  0
ARC
  5
192
  8
1
  6
PHANTOM
 62
     5
 10
171.967296
 20
232.138739
 30
0.0
 40
3.0
 50
204.220943
 51
270.0
  0
LINE
  5
193
  8
1
  6
PHANTOM
 62
     5
 10
179.534135
 20
250.881645
 30
0.0
 11
179.534135
 21
248.698574
 31
0.0
  0
ARC
  5
194
  8
1
  6
PHANTOM
 62
     5
 10
177.534135
 20
248.698574
 30
0.0
 40
2.0
 50
280.0
 51
0.0
  0
LINE
  5
195
  8
1
  6
PHANTOM
 62
     5
 10
169.989997
 20
234.907191
 30
0.0
 11
169.14335
 21
234.907191
 31
0.0
  0
LINE
  5
196
  8
1
  6
CONTINUOUS
 62
     4
 10
101.828097
 20
228.138739
 30
0.0
 11
130.706476
 21
228.138739
 31
0.0
  0
ARC
  5
197
  8
1
  6
CONTINUOUS
 62
     7
 10
318.713229
 20
217.938597
 30
0.0
 40
2.0
 50
241.64065
 51
0.0
  0
LINE
  5
198
  8
1
  6
PHANTOM
 62
     5
 10
177.881431
 20
246.728958
 30
0.0
 11
175.788918
 21
246.359992
 31
0.0
  0
LINE
  5
199
  8
1
  6
PHANTOM
 62
     5
 10
174.204363
 20
244.908014
 30
0.0
 11
171.921848
 21
236.389553
 31
0.0
  0
ARC
  5
19A
  8
1
  6
PHANTOM
 62
     5
 10
171.391786
 20
242.138739
 30
0.0
 40
2.0
 50
270.0
 51
345.0
  0
ARC
  5
19B
  8
1
  6
PHANTOM
 62
     5
 10
169.517115
 20
250.559268
 30
0.0
 40
2.0
 50
92.764273
 51
176.356917
  0
ARC
  5
19C
  8
1
  6
PHANTOM
 62
     5
 10
177.534135
 20
250.881645
 30
0.0
 40
2.0
 50
0.0
 51
91.835406
  0
LINE
  5
19D
  8
1
  6
PHANTOM
 62
     5
 10
171.742753
 20
234.907191
 30
0.0
 11
177.705708
 21
234.907191
 31
0.0
  0
LINE
  5
19E
  8
1
  6
PHANTOM
 62
     5
 10
185.534135
 20
237.138739
 30
0.0
 11
185.534135
 21
229.554214
 31
0.0
  0
ARC
  5
19F
  8
1
  6
PHANTOM
 62
     5
 10
187.534135
 20
237.138739
 30
0.0
 40
2.0
 50
90.0
 51
180.0
  0
LINE
  5
1A0
  8
1
  6
PHANTOM
 62
     5
 10
190.555983
 20
239.138739
 30
0.0
 11
187.534135
 21
239.138739
 31
0.0
  0
ARC
  5
1A1
  8
1
  6
CONTINUOUS
 62
     7
 10
199.199914
 20
254.128183
 30
0.0
 40
2.0
 50
357.712125
 51
44.439378
  0
ARC
  5
1A2
  8
1
  6
CONTINUOUS
 62
     7
 10
699.534135
 20
234.138739
 30
0.0
 40
500.0
 50
183.684218
 51
184.358682
  0
ARC
  5
1A3
  8
1
  6
CONTINUOUS
 62
     7
 10
367.963229
 20
-244.861261
 30
0.0
 40
502.0
 50
92.893649
 51
94.449834
  0
LINE
  5
1A4
  8
1
  6
CONTINUOUS
 62
     7
 10
383.963229
 20
220.138739
 30
0.0
 11
381.463229
 21
220.138739
 31
0.0
  0
LINE
  5
1A5
  8
1
  6
CONTINUOUS
 62
     7
 10
351.963229
 20
212.903739
 30
0.0
 11
352.383229
 21
212.709622
 31
0.0
  0
ARC
  5
1A6
  8
1
  6
CONTINUOUS
 62
     7
 10
367.963229
 20
-244.861261
 30
0.0
 40
502.0
 50
85.550166
 51
87.106351
  0
LINE
  5
1A7
  8
1
  6
CENTER
 62
     2
 10
345.96335
 20
213.638739
 30
0.0
 11
357.963201
 21
213.638739
 31
0.0
  0
LINE
  5
1A8
  8
1
  6
CONTINUOUS
 62
     7
 10
351.034112
 20
214.058739
 30
0.0
 11
351.228229
 21
213.638739
 31
0.0
  0
LINE
  5
1A9
  8
1
  6
CONTINUOUS
 62
     7
 10
351.228229
 20
213.638739
 30
0.0
 11
351.034112
 21
213.218739
 31
0.0
  0
ARC
  5
1AA
  8
1
  6
CONTINUOUS
 62
     7
 10
89.838235
 20
-223.861261
 30
0.0
 40
500.0
 50
83.698744
 51
96.301256
  0
ARC
  5
1AB
  8
1
  6
CONTINUOUS
 62
     7
 10
89.838235
 20
692.138739
 30
0.0
 40
500.0
 50
263.698744
 51
276.301256
  0
LINE
  5
1AC
  8
1
  6
CONTINUOUS
 62
     7
 10
151.838235
 20
265.166346
 30
0.0
 11
151.838235
 21
203.111133
 31
0.0
  0
LINE
  5
1AD
  8
1
  6
CONTINUOUS
 62
     7
 10
27.838235
 20
265.166346
 30
0.0
 11
27.838235
 21
203.111133
 31
0.0
  0
ARC
  5
1AE
  8
1
  6
CONTINUOUS
 62
     7
 10
143.838235
 20
265.166346
 30
0.0
 40
8.0
 50
0.0
 51
83.698744
  0
ARC
  5
1AF
  8
1
  6
CONTINUOUS
 62
     7
 10
143.838235
 20
203.111133
 30
0.0
 40
8.0
 50
276.301256
 51
0.0
  0
ARC
  5
1B0
  8
1
  6
CONTINUOUS
 62
     7
 10
35.838235
 20
203.111133
 30
0.0
 40
8.0
 50
180.0
 51
263.698744
  0
ARC
  5
1B1
  8
1
  6
CONTINUOUS
 62
     7
 10
35.838235
 20
265.166346
 30
0.0
 40
8.0
 50
96.301256
 51
180.0
  0
ARC
  5
1B2
  8
1
  6
CONTINUOUS
 62
     7
 10
89.838235
 20
-223.861261
 30
0.0
 40
496.0
 50
83.698744
 51
96.301256
  0
ARC
  5
1B3
  8
1
  6
CONTINUOUS
 62
     7
 10
89.838235
 20
692.138739
 30
0.0
 40
496.0
 50
263.698744
 51
276.301256
  0
LINE
  5
1B4
  8
1
  6
CONTINUOUS
 62
     7
 10
351.543229
 20
212.709622
 30
0.0
 11
351.963229
 21
212.903739
 31
0.0
  0
LINE
  5
1B5
  8
1
  6
CENTER
 62
     2
 10
367.963229
 20
319.017828
 30
0.0
 11
367.963229
 21
220.138739
 31
0.0
  0
LINE
  5
1B6
  8
1
  6
CONTINUOUS
 62
     7
 10
31.838235
 20
265.166346
 30
0.0
 11
31.838235
 21
203.111133
 31
0.0
  0
LINE
  5
1B7
  8
1
  6
CONTINUOUS
 62
     7
 10
147.838235
 20
203.111133
 30
0.0
 11
147.838235
 21
265.166346
 31
0.0
  0
ARC
  5
1B8
  8
1
  6
CONTINUOUS
 62
     7
 10
35.838235
 20
265.166346
 30
0.0
 40
4.0
 50
96.301256
 51
180.0
  0
ARC
  5
1B9
  8
1
  6
CONTINUOUS
 62
     7
 10
35.838235
 20
203.111133
 30
0.0
 40
4.0
 50
180.0
 51
263.698744
  0
ARC
  5
1BA
  8
1
  6
CONTINUOUS
 62
     7
 10
143.838235
 20
203.111133
 30
0.0
 40
4.0
 50
276.301256
 51
0.0
  0
ARC
  5
1BB
  8
1
  6
CONTINUOUS
 62
     7
 10
143.838235
 20
265.166346
 30
0.0
 40
4.0
 50
0.0
 51
83.698744
  0
LINE
  5
1BC
  8
1
  6
CONTINUOUS
 62
     7
 10
44.838235
 20
246.672055
 30
0.0
 11
44.838235
 21
212.642128
 31
0.0
  0
ARC
  5
1BD
  8
1
  6
CONTINUOUS
 62
     7
 10
89.838235
 20
692.138739
 30
0.0
 40
488.0
 50
265.468792
 51
274.531208
  0
LINE
  5
1BE
  8
1
  6
CONTINUOUS
 62
     7
 10
134.838235
 20
212.642128
 30
0.0
 11
134.838235
 21
246.672055
 31
0.0
  0
ARC
  5
1BF
  8
1
  6
CONTINUOUS
 62
     7
 10
127.838235
 20
246.672055
 30
0.0
 40
7.0
 50
0.0
 51
85.579308
  0
ARC
  5
1C0
  8
1
  6
CONTINUOUS
 62
     7
 10
89.838235
 20
-244.861261
 30
0.0
 40
500.0
 50
85.579308
 51
88.141107
  0
ARC
  5
1C1
  8
1
  6
CONTINUOUS
 62
     7
 10
89.838235
 20
248.138739
 30
0.0
 40
16.0
 50
30.822751
 51
149.177249
  0
ARC
  5
1C2
  8
1
  6
CONTINUOUS
 62
     7
 10
89.838235
 20
248.138739
 30
0.0
 40
12.5
 50
28.685402
 51
151.314598
  0
ARC
  5
1C3
  8
1
  6
CONTINUOUS
 62
     7
 10
89.838235
 20
248.138739
 30
0.0
 40
6.0
 50
31.788331
 51
148.211669
  0
ARC
  5
1C4
  8
1
  6
CONTINUOUS
 62
     7
 10
73.521861
 20
257.874033
 30
0.0
 40
3.0
 50
271.858893
 51
329.177249
  0
ARC
  5
1C5
  8
1
  6
CONTINUOUS
 62
     7
 10
106.154609
 20
257.874033
 30
0.0
 40
3.0
 50
210.822751
 51
268.141107
  0
ARC
  5
1C6
  8
1
  6
CONTINUOUS
 62
     7
 10
89.838235
 20
-244.861261
 30
0.0
 40
500.0
 50
91.858893
 51
94.420692
  0
ARC
  5
1C7
  8
1
  6
CONTINUOUS
 62
     7
 10
51.838235
 20
246.672055
 30
0.0
 40
7.0
 50
94.420692
 51
180.0
  0
ARC
  5
1C8
  8
1
  6
CONTINUOUS
 62
     7
 10
51.838235
 20
212.642128
 30
0.0
 40
7.0
 50
180.0
 51
265.468792
  0
ARC
  5
1C9
  8
1
  6
CONTINUOUS
 62
     7
 10
127.838235
 20
212.642128
 30
0.0
 40
7.0
 50
274.531208
 51
0.0
  0
ARC
  5
1CA
  8
1
  6
CONTINUOUS
 62
     4
 10
77.848373
 20
232.138739
 30
0.0
 40
4.0
 50
270.0
 51
317.384817
  0
ARC
  5
1CB
  8
1
  6
CONTINUOUS
 62
     4
 10
84.093371
 20
227.138739
 30
0.0
 40
4.0
 50
145.718883
 51
170.667582
  0
ARC
  5
1CC
  8
1
  6
CONTINUOUS
 62
     7
 10
89.838235
 20
248.138739
 30
0.0
 40
6.0
 50
211.788331
 51
328.211669
  0
ARC
  5
1CD
  8
1
  6
CONTINUOUS
 62
     4
 10
95.583099
 20
227.138739
 30
0.0
 40
4.0
 50
9.332418
 51
34.281117
  0
ARC
  5
1CE
  8
1
  6
CONTINUOUS
 62
     4
 10
113.838235
 20
230.138739
 30
0.0
 40
14.5
 50
189.332418
 51
198.366341
  0
LINE
  5
1CF
  8
1
  6
CENTER
 62
     2
 10
298.204633
 20
248.138739
 30
0.0
 11
440.034074
 21
248.138739
 31
0.0
  0
LINE
  5
1D0
  8
1
  6
CONTINUOUS
 62
     4
 10
77.848373
 20
228.138739
 30
0.0
 11
48.969994
 21
228.138739
 31
0.0
  0
ARC
  5
1D1
  8
1
  6
CONTINUOUS
 62
     4
 10
65.838235
 20
230.138739
 30
0.0
 40
14.5
 50
341.633659
 51
350.667582
  0
ARC
  5
1D2
  8
1
  6
CONTINUOUS
 62
     4
 10
101.828097
 20
232.138739
 30
0.0
 40
4.0
 50
222.615183
 51
270.0
  0
LINE
  5
1D3
  8
1
  6
CONTINUOUS
 62
     7
 10
351.034112
 20
213.218739
 30
0.0
 11
350.223746
 21
212.408374
 31
0.0
  0
ARC
  5
1D4
  8
1
  6
CONTINUOUS
 62
     7
 10
421.963229
 20
259.138739
 30
0.0
 40
8.0
 50
120.931932
 51
200.713806
  0
ARC
  5
1D5
  8
1
  6
CONTINUOUS
 62
     7
 10
199.655964
 20
204.88598
 30
0.0
 40
2.0
 50
3.349117
 51
3.349117
  0
LINE
  5
1D6
  8
1
  6
CENTER
 62
     2
 10
72.289679
 20
248.138739
 30
0.0
 11
107.145775
 21
248.138739
 31
0.0
  0
LINE
  5
1D7
  8
1
  6
CENTER
 62
     2
 10
89.838235
 20
278.32163
 30
0.0
 11
89.838235
 21
187.414985
 31
0.0
  0
LINE
  5
1D8
  8
1
  6
CENTER
 62
     2
 10
182.458608
 20
248.138739
 30
0.0
 11
270.299305
 21
248.138739
 31
0.0
  0
ARC
  5
1D9
  8
1
  6
CONTINUOUS
 62
     7
 10
421.963229
 20
209.138739
 30
0.0
 40
8.0
 50
78.463041
 51
118.35935
  0
ARC
  5
1DA
  8
1
  6
CONTINUOUS
 62
     7
 10
699.534135
 20
234.138739
 30
0.0
 40
500.0
 50
175.641318
 51
177.377047
  0
ARC
  5
1DB
  8
1
  6
CONTINUOUS
 62
     7
 10
313.963229
 20
209.138739
 30
0.0
 40
8.0
 50
300.931932
 51
330.364269
  0
ARC
  5
1DC
  8
1
  6
CONTINUOUS
 62
     7
 10
313.963229
 20
259.138739
 30
0.0
 40
8.0
 50
258.463041
 51
303.901386
  0
LINE
  5
1DD
  8
1
  6
CONTINUOUS
 62
     7
 10
200.980226
 20
196.138739
 30
0.0
 11
202.755203
 21
192.68196
 31
0.0
  0
LINE
  5
1DE
  8
1
  6
CONTINUOUS
 62
     7
 10
200.980226
 20
272.138739
 30
0.0
 11
202.755203
 21
275.595518
 31
0.0
  0
LINE
  5
1DF
  8
1
  6
CONTINUOUS
 62
     7
 10
204.034135
 20
276.138739
 30
0.0
 11
203.644784
 21
276.138739
 31
0.0
  0
LINE
  5
1E0
  8
1
  6
CONTINUOUS
 62
     7
 10
203.034135
 20
275.930641
 30
0.0
 11
203.034135
 21
192.346838
 31
0.0
  0
LINE
  5
1E1
  8
1
  6
CONTINUOUS
 62
     7
 10
203.644784
 20
192.138739
 30
0.0
 11
204.034135
 21
192.138739
 31
0.0
  0
LINE
  5
1E2
  8
1
  6
CONTINUOUS
 62
     7
 10
204.534135
 20
192.138739
 30
0.0
 11
204.534135
 21
276.138739
 31
0.0
  0
LINE
  5
1E3
  8
1
  6
CONTINUOUS
 62
     7
 10
425.963229
 20
218.936698
 30
0.0
 11
425.963229
 21
249.34078
 31
0.0
  0
LINE
  5
1E4
  8
1
  6
CONTINUOUS
 62
     7
 10
309.963229
 20
249.34078
 30
0.0
 11
309.963229
 21
218.936698
 31
0.0
  0
ARC
  5
1E5
  8
1
  6
CONTINUOUS
 62
     7
 10
204.534135
 20
248.138739
 30
0.0
 40
46.0
 50
271.245659
 51
295.376934
  0
LINE
  5
1E6
  8
1
  6
CONTINUOUS
 62
     7
 10
226.534135
 20
210.138739
 30
0.0
 11
226.534135
 21
259.138739
 31
0.0
  0
LINE
  5
1E7
  8
1
  6
CONTINUOUS
 62
     7
 10
91.088235
 20
215.638739
 30
0.0
 11
88.588235
 21
215.638739
 31
0.0
  0
LINE
  5
1E8
  8
1
  6
CONTINUOUS
 62
     7
 10
225.534135
 20
260.138739
 30
0.0
 11
218.534135
 21
260.138739
 31
0.0
  0
LINE
  5
1E9
  8
1
  6
CONTINUOUS
 62
     7
 10
216.534135
 20
262.138739
 30
0.0
 11
216.534135
 21
264.138739
 31
0.0
  0
LINE
  5
1EA
  8
1
  6
CONTINUOUS
 62
     7
 10
214.534135
 20
266.138739
 30
0.0
 11
205.534135
 21
266.138739
 31
0.0
  0
ARC
  5
1EB
  8
1
  6
CONTINUOUS
 62
     7
 10
367.963229
 20
692.138739
 30
0.0
 40
496.0
 50
264.323795
 51
275.676205
  0
ARC
  5
1EC
  8
1
  6
CONTINUOUS
 62
     7
 10
367.963229
 20
-223.861261
 30
0.0
 40
496.0
 50
84.323795
 51
88.844765
  0
ARC
  5
1ED
  8
1
  6
CONTINUOUS
 62
     7
 10
313.963229
 20
265.166346
 30
0.0
 40
8.0
 50
96.301256
 51
180.0
  0
ARC
  5
1EE
  8
1
  6
CONTINUOUS
 62
     7
 10
313.963229
 20
203.111133
 30
0.0
 40
8.0
 50
180.0
 51
263.698744
  0
ARC
  5
1EF
  8
1
  6
CONTINUOUS
 62
     7
 10
421.963229
 20
203.111133
 30
0.0
 40
8.0
 50
276.301256
 51
0.0
  0
ARC
  5
1F0
  8
1
  6
CONTINUOUS
 62
     7
 10
421.963229
 20
265.166346
 30
0.0
 40
8.0
 50
0.0
 51
83.698744
  0
LINE
  5
1F1
  8
1
  6
CONTINUOUS
 62
     7
 10
305.963229
 20
265.166346
 30
0.0
 11
305.963229
 21
203.111133
 31
0.0
  0
LINE
  5
1F2
  8
1
  6
CONTINUOUS
 62
     7
 10
429.963229
 20
265.166346
 30
0.0
 11
429.963229
 21
203.111133
 31
0.0
  0
ARC
  5
1F3
  8
1
  6
CONTINUOUS
 62
     7
 10
367.963229
 20
692.138739
 30
0.0
 40
500.0
 50
263.698744
 51
276.301256
  0
ARC
  5
1F4
  8
1
  6
CONTINUOUS
 62
     7
 10
367.963229
 20
-223.861261
 30
0.0
 40
500.0
 50
83.698744
 51
88.854008
  0
ARC
  5
1F5
  8
1
  6
CONTINUOUS
 62
     7
 10
202.055881
 20
256.9288
 30
0.0
 40
2.0
 50
177.377047
 51
224.439378
  0
LINE
  5
1F6
  8
1
  6
CONTINUOUS
 62
     4
 10
109.158975
 20
220.138739
 30
0.0
 11
130.706476
 21
228.138739
 31
0.0
  0
LINE
  5
1F7
  8
1
  6
CONTINUOUS
 62
     4
 10
70.483573
 20
220.151334
 30
0.0
 11
48.969994
 21
228.138739
 31
0.0
  0
LINE
  5
1F8
  8
1
  6
CONTINUOUS
 62
     7
 10
88.588235
 20
223.638739
 30
0.0
 11
91.088235
 21
223.638739
 31
0.0
  0
LINE
  5
1F9
  8
1
  6
CONTINUOUS
 62
     7
 10
84.838235
 20
251.455364
 30
0.0
 11
84.838235
 21
244.822115
 31
0.0
  0
LINE
  5
1FA
  8
1
  6
CONTINUOUS
 62
     7
 10
94.838235
 20
244.822115
 30
0.0
 11
94.838235
 21
251.455364
 31
0.0
  0
LINE
  5
1FB
  8
1
  6
CONTINUOUS
 62
     7
 10
88.588235
 20
215.638739
 30
0.0
 11
88.588235
 21
223.638739
 31
0.0
  0
LINE
  5
1FC
  8
1
  6
CONTINUOUS
 62
     4
 10
65.514891
 20
206.747789
 30
0.0
 11
51.838235
 21
206.747789
 31
0.0
  0
LINE
  5
1FD
  8
1
  6
CONTINUOUS
 62
     4
 10
114.161579
 20
206.747789
 30
0.0
 11
127.838235
 21
206.747789
 31
0.0
  0
CIRCLE
  5
1FE
  8
1
  6
CONTINUOUS
 62
     7
 10
89.838235
 20
220.638739
 30
0.0
 40
7.5
  0
ARC
  5
1FF
  8
1
  6
CONTINUOUS
 62
     4
 10
51.838235
 20
213.747789
 30
0.0
 40
7.0
 50
180.0
 51
270.0
  0
ARC
  5
200
  8
1
  6
CONTINUOUS
 62
     4
 10
127.838235
 20
213.747789
 30
0.0
 40
7.0
 50
270.0
 51
0.0
  0
ARC
  5
201
  8
1
  6
CONTINUOUS
 62
     7
 10
203.644784
 20
275.138739
 30
0.0
 40
1.0
 50
90.0
 51
152.820535
  0
ARC
  5
202
  8
1
  6
CONTINUOUS
 62
     7
 10
204.034135
 20
275.638739
 30
0.0
 40
0.5
 50
0.0
 51
90.0
  0
ARC
  5
203
  8
1
  6
CONTINUOUS
 62
     7
 10
204.034135
 20
192.638739
 30
0.0
 40
0.5
 50
270.0
 51
0.0
  0
ARC
  5
204
  8
1
  6
CONTINUOUS
 62
     7
 10
203.644784
 20
193.138739
 30
0.0
 40
1.0
 50
207.179465
 51
270.0
  0
ARC
  5
205
  8
1
  6
CONTINUOUS
 62
     7
 10
214.534135
 20
264.138739
 30
0.0
 40
2.0
 50
0.0
 51
90.0
  0
ARC
  5
206
  8
1
  6
CONTINUOUS
 62
     7
 10
218.534135
 20
262.138739
 30
0.0
 40
2.0
 50
180.0
 51
270.0
  0
ARC
  5
207
  8
1
  6
CONTINUOUS
 62
     7
 10
225.534135
 20
259.138739
 30
0.0
 40
1.0
 50
0.0
 51
90.0
  0
ARC
  5
208
  8
1
  6
CONTINUOUS
 62
     7
 10
222.534135
 20
210.191407
 30
0.0
 40
4.0
 50
295.376934
 51
0.0
  0
ARC
  5
20A
  8
1
  6
CONTINUOUS
 62
     7
 10
699.534135
 20
234.138739
 30
0.0
 40
498.733372
 50
177.712125
 51
183.470277
  0
ARC
  5
20B
  8
1
  6
CONTINUOUS
 62
     7
 10
367.963229
 20
702.138739
 30
0.0
 40
500.0
 50
265.532003
 51
274.467997
  0
ARC
  5
20C
  8
1
  6
CONTINUOUS
 62
     7
 10
322.655096
 20
204.193899
 30
0.0
 40
2.0
 50
50.085151
 51
150.364269
  0
ARC
  5
20E
  8
1
  6
CONTINUOUS
 62
     7
 10
329.713229
 20
246.652663
 30
0.0
 40
9.0
 50
94.449835
 51
180.0
  0
ARC
  5
20F
  8
1
  6
CONTINUOUS
 62
     7
 10
319.54088
 20
250.838751
 30
0.0
 40
2.0
 50
337.632031
 51
123.901386
  0
LINE
  5
210
  8
1
  6
CONTINUOUS
 62
     4
 10
381.285738
 20
228.674638
 30
0.0
 11
409.178766
 21
228.674638
 31
0.0
  0
LINE
  5
211
  8
1
  6
CONTINUOUS
 62
     4
 10
326.747691
 20
228.674638
 30
0.0
 11
354.640719
 21
228.674638
 31
0.0
  0
LINE
  5
212
  8
1
  6
CONTINUOUS
 62
     7
 10
354.463229
 20
224.216113
 30
0.0
 11
354.43169
 21
224.148478
 31
0.0
  0
LINE
  5
213
  8
1
  6
CONTINUOUS
 62
     7
 10
381.463229
 20
224.216113
 30
0.0
 11
381.494767
 21
224.148478
 31
0.0
  0
LINE
  5
214
  8
1
  6
CONTINUOUS
 62
     7
 10
350.223746
 20
214.869105
 30
0.0
 11
351.034112
 21
214.058739
 31
0.0
  0
LINE
  5
215
  8
1
  6
CONTINUOUS
 62
     7
 10
350.732863
 20
215.378222
 30
0.0
 11
350.223746
 21
214.869105
 31
0.0
  0
LINE
  5
216
  8
1
  6
CONTINUOUS
 62
     7
 10
353.702711
 20
212.408374
 30
0.0
 11
352.892345
 21
213.218739
 31
0.0
  0
LINE
  5
217
  8
1
  6
CONTINUOUS
 62
     7
 10
352.383229
 20
212.709622
 30
0.0
 11
353.193594
 21
211.899257
 31
0.0
  0
LINE
  5
218
  8
1
  6
CONTINUOUS
 62
     7
 10
353.963229
 20
222.035387
 30
0.0
 11
353.963229
 21
221.638739
 31
0.0
  0
LINE
  5
219
  8
1
  6
CONTINUOUS
 62
     7
 10
381.963228
 20
222.035387
 30
0.0
 11
381.963228
 21
221.638739
 31
0.0
  0
ARC
  5
21A
  8
1
  6
CONTINUOUS
 62
     7
 10
358.963229
 20
222.035387
 30
0.0
 40
5.0
 50
155.0
 51
180.0
  0
ARC
  5
21B
  8
1
  6
CONTINUOUS
 62
     7
 10
376.963229
 20
222.035387
 30
0.0
 40
5.0
 50
0.0
 51
25.0
  0
ARC
  5
21C
  8
1
  6
CONTINUOUS
 62
     7
 10
351.963229
 20
221.638739
 30
0.0
 40
2.0
 50
311.409622
 51
0.0
  0
ARC
  5
21D
  8
1
  6
CONTINUOUS
 62
     7
 10
383.963228
 20
221.638739
 30
0.0
 40
2.0
 50
180.0
 51
228.590378
  0
LINE
  5
21E
  8
1
  6
CONTINUOUS
 62
     7
 10
353.193594
 20
211.899257
 30
0.0
 11
353.702711
 21
212.408374
 31
0.0
  0
LINE
  5
21F
  8
1
  6
CONTINUOUS
 62
     7
 10
351.543229
 20
214.567856
 30
0.0
 11
350.732863
 21
215.378222
 31
0.0
  0
LINE
  5
220
  8
1
  6
CONTINUOUS
 62
     7
 10
353.702711
 20
214.869105
 30
0.0
 11
353.193594
 21
215.378222
 31
0.0
  0
LINE
  5
221
  8
1
  6
CONTINUOUS
 62
     7
 10
351.963229
 20
214.373739
 30
0.0
 11
351.543229
 21
214.567856
 31
0.0
  0
LINE
  5
222
  8
1
  6
CONTINUOUS
 62
     7
 10
352.892345
 20
214.058739
 30
0.0
 11
353.702711
 21
214.869105
 31
0.0
  0
ARC
  5
223
  8
1
  6
CONTINUOUS
 62
     4
 10
383.963228
 20
221.638739
 30
0.0
 40
2.0
 50
101.209169
 51
180.0
  0
LINE
  5
224
  8
1
  6
CONTINUOUS
 62
     4
 10
383.574446
 20
223.600587
 30
0.0
 11
409.178766
 21
228.674638
 31
0.0
  0
LINE
  5
225
  8
1
  6
CONTINUOUS
 62
     4
 10
352.352011
 20
223.600587
 30
0.0
 11
326.747691
 21
228.674638
 31
0.0
  0
ARC
  5
226
  8
1
  6
CONTINUOUS
 62
     4
 10
351.963229
 20
221.638739
 30
0.0
 40
2.0
 50
0.0
 51
78.790831
  0
LINE
  5
227
  8
1
  6
CONTINUOUS
 62
     7
 10
353.193594
 20
215.378222
 30
0.0
 11
352.383229
 21
214.567856
 31
0.0
  0
LINE
  5
228
  8
1
  6
CONTINUOUS
 62
     7
 10
352.892345
 20
213.218739
 30
0.0
 11
352.698229
 21
213.638739
 31
0.0
  0
CIRCLE
  5
229
  8
1
  6
CONTINUOUS
 62
     7
 10
313.963229
 20
259.138739
 30
0.0
 40
4.5
  0
CIRCLE
  5
22A
  8
1
  6
CONTINUOUS
 62
     7
 10
313.963229
 20
209.138739
 30
0.0
 40
4.5
  0
CIRCLE
  5
22B
  8
1
  6
CONTINUOUS
 62
     7
 10
421.963229
 20
209.138739
 30
0.0
 40
4.5
  0
CIRCLE
  5
22C
  8
1
  6
CONTINUOUS
 62
     7
 10
421.963229
 20
259.138739
 30
0.0
 40
4.5
  0
CIRCLE
  5
22D
  8
1
  6
CONTINUOUS
 62
     4
 10
313.963229
 20
259.138739
 30
0.0
 40
3.25
  0
CIRCLE
  5
22E
  8
1
  6
CONTINUOUS
 62
     4
 10
313.963229
 20
209.138739
 30
0.0
 40
3.25
  0
CIRCLE
  5
22F
  8
1
  6
CONTINUOUS
 62
     4
 10
421.963229
 20
209.138739
 30
0.0
 40
3.25
  0
CIRCLE
  5
230
  8
1
  6
CONTINUOUS
 62
     4
 10
421.963229
 20
259.138739
 30
0.0
 40
3.25
  0
CIRCLE
  5
231
  8
1
  6
CONTINUOUS
 62
     4
 10
313.963229
 20
259.138739
 30
0.0
 40
2.5
  0
CIRCLE
  5
232
  8
1
  6
CONTINUOUS
 62
     4
 10
313.963229
 20
209.138739
 30
0.0
 40
2.5
  0
CIRCLE
  5
233
  8
1
  6
CONTINUOUS
 62
     4
 10
421.963229
 20
209.138739
 30
0.0
 40
2.5
  0
CIRCLE
  5
234
  8
1
  6
CONTINUOUS
 62
     4
 10
421.963229
 20
259.138739
 30
0.0
 40
2.5
  0
CIRCLE
  5
235
  8
1
  6
CONTINUOUS
 62
     7
 10
313.963229
 20
209.138739
 30
0.0
 40
2.0
  0
CIRCLE
  5
236
  8
1
  6
CONTINUOUS
 62
     7
 10
313.963229
 20
259.138739
 30
0.0
 40
2.0
  0
CIRCLE
  5
237
  8
1
  6
CONTINUOUS
 62
     7
 10
421.963229
 20
259.138739
 30
0.0
 40
2.0
  0
CIRCLE
  5
238
  8
1
  6
CONTINUOUS
 62
     7
 10
421.963229
 20
209.138739
 30
0.0
 40
2.0
  0
ARC
  5
239
  8
1
  6
CONTINUOUS
 62
     7
 10
313.963229
 20
259.138739
 30
0.0
 40
8.0
 50
339.286194
 51
59.068068
  0
ARC
  5
23A
  8
1
  6
CONTINUOUS
 62
     7
 10
313.963229
 20
209.138739
 30
0.0
 40
8.0
 50
61.64065
 51
101.536959
  0
ARC
  5
23B
  8
1
  6
CONTINUOUS
 62
     7
 10
421.963229
 20
209.138739
 30
0.0
 40
8.0
 50
209.635731
 51
239.068068
  0
ARC
  5
23C
  8
1
  6
CONTINUOUS
 62
     7
 10
421.963229
 20
259.138739
 30
0.0
 40
8.0
 50
236.098614
 51
281.536959
  0
ARC
  5
23D
  8
1
  6
CONTINUOUS
 62
     7
 10
417.213229
 20
217.938597
 30
0.0
 40
2.0
 50
180.0
 51
298.35935
  0
ARC
  5
23E
  8
1
  6
CONTINUOUS
 62
     7
 10
413.271361
 20
204.193899
 30
0.0
 40
2.0
 50
29.635731
 51
129.914849
  0
ARC
  5
23F
  8
1
  6
CONTINUOUS
 62
     7
 10
406.213229
 20
246.652663
 30
0.0
 40
9.0
 50
0.0
 51
85.550166
  0
ARC
  5
240
  8
1
  6
CONTINUOUS
 62
     7
 10
406.213229
 20
212.630887
 30
0.0
 40
9.0
 50
274.467997
 51
0.0
  0
LINE
  5
241
  8
1
  6
CONTINUOUS
 62
     7
 10
415.213229
 20
246.652663
 30
0.0
 11
415.213229
 21
212.630887
 31
0.0
  0
LINE
  5
242
  8
1
  6
CONTINUOUS
 62
     7
 10
320.713229
 20
246.652663
 30
0.0
 11
320.713229
 21
212.630887
 31
0.0
  0
ARC
  5
243
  8
1
  6
CONTINUOUS
 62
     7
 10
412.60964
 20
255.601737
 30
0.0
 40
2.0
 50
234.444451
 51
20.713806
  0
ARC
  5
244
  8
1
  6
CONTINUOUS
 62
     7
 10
416.385577
 20
250.838751
 30
0.0
 40
2.0
 50
56.098614
 51
202.367969
  0
ARC
  5
245
  8
1
  6
CONTINUOUS
 62
     7
 10
319.103422
 20
267.716525
 30
0.0
 40
2.0
 50
95.676205
 51
239.068068
  0
ARC
  5
246
  8
1
  6
CONTINUOUS
 62
     7
 10
416.823035
 20
267.716525
 30
0.0
 40
2.0
 50
300.931932
 51
84.323795
  0
ARC
  5
247
  8
1
  6
CONTINUOUS
 62
     7
 10
423.963229
 20
249.34078
 30
0.0
 40
2.0
 50
0.0
 51
101.536959
  0
ARC
  5
248
  8
1
  6
CONTINUOUS
 62
     7
 10
311.963229
 20
249.34078
 30
0.0
 40
2.0
 50
78.463041
 51
180.0
  0
ARC
  5
249
  8
1
  6
CONTINUOUS
 62
     7
 10
311.963229
 20
218.936698
 30
0.0
 40
2.0
 50
180.0
 51
281.536959
  0
ARC
  5
24A
  8
1
  6
CONTINUOUS
 62
     7
 10
319.103422
 20
200.560954
 30
0.0
 40
2.0
 50
120.931932
 51
264.323795
  0
ARC
  5
24B
  8
1
  6
CONTINUOUS
 62
     7
 10
416.823035
 20
200.560954
 30
0.0
 40
2.0
 50
275.676205
 51
59.068068
  0
ARC
  5
24C
  8
1
  6
CONTINUOUS
 62
     7
 10
423.963229
 20
218.936698
 30
0.0
 40
2.0
 50
258.463041
 51
0.0
  0
LINE
  5
24D
  8
1
  6
CENTER
 62
     2
 10
351.963229
 20
219.638612
 30
0.0
 11
351.963229
 21
207.638865
 31
0.0
  0
CIRCLE
  5
24E
  8
1
  6
CONTINUOUS
 62
     7
 10
351.963229
 20
213.638739
 30
0.0
 40
3.5
  0
LINE
  5
24F
  8
1
  6
CONTINUOUS
 62
     7
 10
384.383229
 20
214.567856
 30
0.0
 11
383.963229
 21
214.373739
 31
0.0
  0
LINE
  5
250
  8
1
  6
CONTINUOUS
 62
     7
 10
383.963229
 20
214.373739
 30
0.0
 11
383.543229
 21
214.567856
 31
0.0
  0
LINE
  5
251
  8
1
  6
CONTINUOUS
 62
     7
 10
383.543229
 20
214.567856
 30
0.0
 11
382.732863
 21
215.378222
 31
0.0
  0
LINE
  5
252
  8
1
  6
CONTINUOUS
 62
     7
 10
385.193594
 20
215.378222
 30
0.0
 11
384.383229
 21
214.567856
 31
0.0
  0
LINE
  5
253
  8
1
  6
CONTINUOUS
 62
     7
 10
385.702711
 20
214.869105
 30
0.0
 11
385.193594
 21
215.378222
 31
0.0
  0
LINE
  5
254
  8
1
  6
CONTINUOUS
 62
     7
 10
384.892345
 20
214.058739
 30
0.0
 11
385.702711
 21
214.869105
 31
0.0
  0
LINE
  5
255
  8
1
  6
CONTINUOUS
 62
     7
 10
384.698229
 20
213.638739
 30
0.0
 11
384.892345
 21
214.058739
 31
0.0
  0
LINE
  5
256
  8
1
  6
CONTINUOUS
 62
     7
 10
384.892345
 20
213.218739
 30
0.0
 11
384.698229
 21
213.638739
 31
0.0
  0
LINE
  5
257
  8
1
  6
CONTINUOUS
 62
     7
 10
385.702711
 20
212.408374
 30
0.0
 11
384.892345
 21
213.218739
 31
0.0
  0
LINE
  5
258
  8
1
  6
CONTINUOUS
 62
     7
 10
385.193594
 20
211.899257
 30
0.0
 11
385.702711
 21
212.408374
 31
0.0
  0
LINE
  5
259
  8
1
  6
CONTINUOUS
 62
     7
 10
384.383229
 20
212.709622
 30
0.0
 11
385.193594
 21
211.899257
 31
0.0
  0
LINE
  5
25A
  8
1
  6
CONTINUOUS
 62
     7
 10
383.963229
 20
212.903739
 30
0.0
 11
384.383229
 21
212.709622
 31
0.0
  0
LINE
  5
25B
  8
1
  6
CONTINUOUS
 62
     7
 10
383.543229
 20
212.709622
 30
0.0
 11
383.963229
 21
212.903739
 31
0.0
  0
LINE
  5
25C
  8
1
  6
CONTINUOUS
 62
     7
 10
383.543229
 20
212.709622
 30
0.0
 11
382.732863
 21
211.899257
 31
0.0
  0
LINE
  5
25D
  8
1
  6
CONTINUOUS
 62
     7
 10
382.223746
 20
212.408374
 30
0.0
 11
382.732863
 21
211.899257
 31
0.0
  0
LINE
  5
25E
  8
1
  6
CONTINUOUS
 62
     7
 10
383.034112
 20
213.218739
 30
0.0
 11
382.223746
 21
212.408374
 31
0.0
  0
LINE
  5
25F
  8
1
  6
CONTINUOUS
 62
     7
 10
383.228229
 20
213.638739
 30
0.0
 11
383.034112
 21
213.218739
 31
0.0
  0
LINE
  5
260
  8
1
  6
CONTINUOUS
 62
     7
 10
383.034112
 20
214.058739
 30
0.0
 11
383.228229
 21
213.638739
 31
0.0
  0
LINE
  5
261
  8
1
  6
CONTINUOUS
 62
     7
 10
382.732863
 20
215.378222
 30
0.0
 11
382.223746
 21
214.869105
 31
0.0
  0
LINE
  5
262
  8
1
  6
CONTINUOUS
 62
     7
 10
382.223746
 20
214.869105
 30
0.0
 11
383.034112
 21
214.058739
 31
0.0
  0
LINE
  5
263
  8
1
  6
CENTER
 62
     2
 10
377.96335
 20
213.638739
 30
0.0
 11
389.963201
 21
213.638739
 31
0.0
  0
LINE
  5
264
  8
1
  6
CENTER
 62
     2
 10
383.963229
 20
219.638612
 30
0.0
 11
383.963229
 21
207.638865
 31
0.0
  0
CIRCLE
  5
265
  8
1
  6
CONTINUOUS
 62
     7
 10
383.963229
 20
213.638739
 30
0.0
 40
3.5
  0
LINE
  5
266
  8
1
  6
CENTER
 62
     2
 10
367.963229
 20
205.708419
 30
0.0
 11
367.963229
 21
184.974391
 31
0.0
  0
LINE
  5
267
  8
1
  6
CONTINUOUS
 62
     7
 10
91.088235
 20
223.638739
 30
0.0
 11
91.088235
 21
215.638739
 31
0.0
  0
LINE
  5
268
  8
1
  6
CENTER
 62
     2
 10
313.963229
 20
215.286639
 30
0.0
 11
313.963229
 21
203.111133
 31
0.0
  0
LINE
  5
269
  8
1
  6
CENTER
 62
     2
 10
319.982148
 20
209.138739
 30
0.0
 11
307.50155
 21
209.138739
 31
0.0
  0
LINE
  5
26A
  8
1
  6
CENTER
 62
     2
 10
313.963229
 20
265.286639
 30
0.0
 11
313.963229
 21
253.111133
 31
0.0
  0
LINE
  5
26B
  8
1
  6
CENTER
 62
     2
 10
319.982148
 20
259.138739
 30
0.0
 11
307.50155
 21
259.138739
 31
0.0
  0
LINE
  5
26C
  8
1
  6
CENTER
 62
     2
 10
421.963229
 20
265.286639
 30
0.0
 11
421.963229
 21
253.111133
 31
0.0
  0
LINE
  5
26D
  8
1
  6
CENTER
 62
     2
 10
427.982148
 20
259.138739
 30
0.0
 11
415.50155
 21
259.138739
 31
0.0
  0
LINE
  5
26E
  8
1
  6
CENTER
 62
     2
 10
421.963229
 20
215.286639
 30
0.0
 11
421.963229
 21
203.111133
 31
0.0
  0
LINE
  5
26F
  8
1
  6
CENTER
 62
     2
 10
427.982148
 20
209.138739
 30
0.0
 11
415.50155
 21
209.138739
 31
0.0
  0
LINE
  5
270
  8
1
  6
CONTINUOUS
 62
     7
 10
234.534135
 20
314.638739
 30
0.0
 11
234.534135
 21
239.638739
 31
0.0
  0
LINE
  5
271
  8
1
  6
CONTINUOUS
 62
     7
 10
234.534135
 20
239.638739
 30
0.0
 11
230.534135
 21
239.638739
 31
0.0
  0
LINE
  5
272
  8
1
  6
CONTINUOUS
 62
     7
 10
230.534135
 20
239.638739
 30
0.0
 11
230.534135
 21
314.638739
 31
0.0
  0
LINE
  5
273
  8
1
  6
CONTINUOUS
 62
     7
 10
230.534135
 20
314.638739
 30
0.0
 11
234.534135
 21
314.638739
 31
0.0
  0
ARC
  5
274
  8
1
  6
CONTINUOUS
 62
     7
 10
213.221635
 20
248.138739
 30
0.0
 40
14.3125
 50
344.810713
 51
15.189287
  0
ARC
  5
275
  8
1
  6
CONTINUOUS
 62
     7
 10
231.29976
 20
242.513739
 30
0.0
 40
3.765625
 50
150.137166
 51
209.862834
  0
ARC
  5
276
  8
1
  6
CONTINUOUS
 62
     7
 10
241.846635
 20
248.138739
 30
0.0
 40
14.3125
 50
164.810713
 51
195.189287
  0
LINE
  5
277
  8
1
  6
CONTINUOUS
 62
     7
 10
234.534135
 20
240.638739
 30
0.0
 11
237.034135
 21
240.638739
 31
0.0
  0
ARC
  5
278
  8
1
  6
CONTINUOUS
 62
     7
 10
223.76851
 20
253.763739
 30
0.0
 40
3.765625
 50
330.137166
 51
29.862834
  0
ARC
  5
279
  8
1
  6
CONTINUOUS
 62
     7
 10
223.76851
 20
242.513739
 30
0.0
 40
3.765625
 50
330.137166
 51
29.862834
  0
LINE
  5
27A
  8
1
  6
CONTINUOUS
 62
     7
 10
227.534135
 20
253.763739
 30
0.0
 11
227.534135
 21
242.513739
 31
0.0
  0
LINE
  5
27B
  8
1
  6
CONTINUOUS
 62
     7
 10
227.034135
 20
255.638739
 30
0.0
 11
226.534135
 21
255.638739
 31
0.0
  0
LINE
  5
27C
  8
1
  6
CONTINUOUS
 62
     7
 10
226.534135
 20
251.888739
 30
0.0
 11
227.034135
 21
251.888739
 31
0.0
  0
LINE
  5
27D
  8
1
  6
CONTINUOUS
 62
     7
 10
226.534135
 20
244.388739
 30
0.0
 11
227.034135
 21
244.388739
 31
0.0
  0
LINE
  5
27E
  8
1
  6
CONTINUOUS
 62
     7
 10
226.534135
 20
240.638739
 30
0.0
 11
227.034135
 21
240.638739
 31
0.0
  0
ARC
  5
27F
  8
1
  6
CONTINUOUS
 62
     7
 10
231.29976
 20
253.763739
 30
0.0
 40
3.765625
 50
150.137166
 51
209.862834
  0
LINE
  5
280
  8
1
  6
CONTINUOUS
 62
     7
 10
227.534135
 20
242.513739
 30
0.0
 11
227.534135
 21
253.763739
 31
0.0
  0
LINE
  5
281
  8
1
  6
CONTINUOUS
 62
     7
 10
228.034135
 20
240.638739
 30
0.0
 11
230.534135
 21
240.638739
 31
0.0
  0
LINE
  5
282
  8
1
  6
CONTINUOUS
 62
     7
 10
230.534135
 20
244.388739
 30
0.0
 11
228.034135
 21
244.388739
 31
0.0
  0
LINE
  5
283
  8
1
  6
CONTINUOUS
 62
     7
 10
230.534135
 20
251.888739
 30
0.0
 11
228.034135
 21
251.888739
 31
0.0
  0
LINE
  5
284
  8
1
  6
CONTINUOUS
 62
     7
 10
230.534135
 20
255.638739
 30
0.0
 11
228.034135
 21
255.638739
 31
0.0
  0
LINE
  5
285
  8
1
  6
PHANTOM
 62
     5
 10
250.534135
 20
255.638739
 30
0.0
 11
248.034135
 21
255.638739
 31
0.0
  0
LINE
  5
286
  8
1
  6
PHANTOM
 62
     5
 10
250.534135
 20
251.888739
 30
0.0
 11
248.034135
 21
251.888739
 31
0.0
  0
LINE
  5
287
  8
1
  6
PHANTOM
 62
     5
 10
250.534135
 20
244.388739
 30
0.0
 11
248.034135
 21
244.388739
 31
0.0
  0
LINE
  5
288
  8
1
  6
PHANTOM
 62
     5
 10
248.034135
 20
240.638739
 30
0.0
 11
250.534135
 21
240.638739
 31
0.0
  0
LINE
  5
289
  8
1
  6
PHANTOM
 62
     5
 10
247.534135
 20
242.513739
 30
0.0
 11
247.534135
 21
253.763739
 31
0.0
  0
ARC
  5
28A
  8
1
  6
PHANTOM
 62
     5
 10
251.29976
 20
253.763739
 30
0.0
 40
3.765625
 50
150.137166
 51
209.862834
  0
ARC
  5
28B
  8
1
  6
PHANTOM
 62
     5
 10
251.29976
 20
242.513739
 30
0.0
 40
3.765625
 50
150.137166
 51
209.862834
  0
ARC
  5
28C
  8
1
  6
PHANTOM
 62
     5
 10
261.846635
 20
248.138739
 30
0.0
 40
14.3125
 50
164.810713
 51
195.189287
  0
LINE
  5
28D
  8
1
  6
PHANTOM
 62
     5
 10
254.534135
 20
240.638739
 30
0.0
 11
257.034135
 21
240.638739
 31
0.0
  0
LINE
  5
28E
  8
1
  6
PHANTOM
 62
     5
 10
254.534135
 20
244.388739
 30
0.0
 11
257.034135
 21
244.388739
 31
0.0
  0
LINE
  5
28F
  8
1
  6
PHANTOM
 62
     5
 10
254.534135
 20
251.888739
 30
0.0
 11
257.034135
 21
251.888739
 31
0.0
  0
LINE
  5
290
  8
1
  6
PHANTOM
 62
     5
 10
257.034135
 20
255.638739
 30
0.0
 11
254.534135
 21
255.638739
 31
0.0
  0
LINE
  5
291
  8
1
  6
PHANTOM
 62
     5
 10
257.534135
 20
253.763739
 30
0.0
 11
257.534135
 21
242.513739
 31
0.0
  0
ARC
  5
292
  8
1
  6
PHANTOM
 62
     5
 10
253.76851
 20
242.513739
 30
0.0
 40
3.765625
 50
330.137166
 51
29.862834
  0
ARC
  5
293
  8
1
  6
PHANTOM
 62
     5
 10
253.76851
 20
253.763739
 30
0.0
 40
3.765625
 50
330.137166
 51
29.862834
  0
ARC
  5
294
  8
1
  6
PHANTOM
 62
     5
 10
243.221635
 20
248.138739
 30
0.0
 40
14.3125
 50
344.810713
 51
15.189287
  0
LINE
  5
295
  8
1
  6
CONTINUOUS
 62
     7
 10
267.034135
 20
224.638739
 30
0.0
 11
266.034135
 21
223.638739
 31
0.0
  0
LINE
  5
296
  8
1
  6
CONTINUOUS
 62
     7
 10
260.034135
 20
217.638739
 30
0.0
 11
261.034135
 21
218.638739
 31
0.0
  0
ARC
  5
297
  8
1
  6
CONTINUOUS
 62
     7
 10
261.034135
 20
223.638739
 30
0.0
 40
5.0
 50
270.0
 51
0.0
  0
ARC
  5
298
  8
1
  6
CONTINUOUS
 62
     7
 10
233.534135
 20
217.638739
 30
0.0
 40
1.0
 50
30.0
 51
180.0
  0
LINE
  5
299
  8
1
  6
CONTINUOUS
 62
     4
 10
232.120287
 20
267.587669
 30
0.0
 11
233.541057
 21
267.587669
 31
0.0
  0
LINE
  5
29A
  8
1
  6
CONTINUOUS
 62
     4
 10
231.917319
 20
258.638739
 30
0.0
 11
233.300504
 21
258.638739
 31
0.0
  0
ARC
  5
29B
  8
1
  6
CONTINUOUS
 62
     7
 10
223.221635
 20
248.138739
 30
0.0
 40
14.3125
 50
344.810713
 51
15.189287
  0
LINE
  5
29C
  8
1
  6
CONTINUOUS
 62
     7
 10
267.034135
 20
259.138739
 30
0.0
 11
267.034135
 21
224.638739
 31
0.0
  0
LINE
  5
29D
  8
1
  6
CONTINUOUS
 62
     7
 10
263.034135
 20
259.138739
 30
0.0
 11
267.034135
 21
259.138739
 31
0.0
  0
ARC
  5
29E
  8
1
  6
CONTINUOUS
 62
     7
 10
235.266186
 20
218.638739
 30
0.0
 40
1.0
 50
210.0
 51
270.0
  0
ARC
  5
29F
  8
1
  6
CONTINUOUS
 62
     7
 10
233.76851
 20
253.763739
 30
0.0
 40
3.765625
 50
330.137166
 51
29.862834
  0
LINE
  5
2A0
  8
1
  6
CONTINUOUS
 62
     7
 10
237.534135
 20
245.138739
 30
0.0
 11
257.956785
 21
245.138739
 31
0.0
  0
LINE
  5
2A1
  8
1
  6
CONTINUOUS
 62
     7
 10
237.534135
 20
243.138739
 30
0.0
 11
257.956785
 21
243.138739
 31
0.0
  0
LINE
  5
2A2
  8
1
  6
CONTINUOUS
 62
     7
 10
237.534135
 20
253.138739
 30
0.0
 11
257.956785
 21
253.138739
 31
0.0
  0
LINE
  5
2A3
  8
1
  6
CONTINUOUS
 62
     7
 10
205.534135
 20
276.138739
 30
0.0
 11
205.534135
 21
192.138739
 31
0.0
  0
LINE
  5
2A4
  8
1
  6
CONTINUOUS
 62
     7
 10
257.956785
 20
245.138739
 30
0.0
 11
258.534135
 21
247.638739
 31
0.0
  0
LINE
  5
2A5
  8
1
  6
CONTINUOUS
 62
     7
 10
257.956785
 20
251.138739
 30
0.0
 11
258.534135
 21
248.638739
 31
0.0
  0
LINE
  5
2A6
  8
1
  6
PHANTOM
 62
     5
 10
233.534135
 20
314.638739
 30
0.0
 11
237.534135
 21
314.638739
 31
0.0
  0
LINE
  5
2A7
  8
1
  6
CONTINUOUS
 62
     7
 10
257.956785
 20
245.138739
 30
0.0
 11
257.956785
 21
243.138739
 31
0.0
  0
LINE
  5
2A8
  8
1
  6
CONTINUOUS
 62
     7
 10
257.956785
 20
253.138739
 30
0.0
 11
257.956785
 21
251.138739
 31
0.0
  0
LINE
  5
2A9
  8
1
  6
PHANTOM
 62
     5
 10
237.534135
 20
314.638739
 30
0.0
 11
237.534135
 21
303.638246
 31
0.0
  0
LINE
  5
2AA
  8
1
  6
CONTINUOUS
 62
     7
 10
257.956785
 20
251.138739
 30
0.0
 11
237.534135
 21
251.138739
 31
0.0
  0
LINE
  5
2AB
  8
1
  6
PHANTOM
 62
     5
 10
252.120287
 20
267.587669
 30
0.0
 11
253.541057
 21
267.587669
 31
0.0
  0
LINE
  5
2AC
  8
1
  6
PHANTOM
 62
     5
 10
251.917319
 20
258.638739
 30
0.0
 11
253.300504
 21
258.638739
 31
0.0
  0
LINE
  5
2AD
  8
1
  6
CONTINUOUS
 62
     7
 10
234.534135
 20
244.388739
 30
0.0
 11
237.034135
 21
244.388739
 31
0.0
  0
ARC
  5
2AE
  8
1
  6
CONTINUOUS
 62
     7
 10
233.76851
 20
242.513739
 30
0.0
 40
3.765625
 50
330.137166
 51
29.862834
  0
LINE
  5
2AF
  8
1
  6
PHANTOM
 62
     5
 10
233.534135
 20
303.786752
 30
0.0
 11
233.534135
 21
314.638739
 31
0.0
  0
LINE
  5
2B0
  8
1
  6
CONTINUOUS
 62
     7
 10
258.534135
 20
244.138739
 30
0.0
 11
257.956785
 21
243.138739
 31
0.0
  0
LINE
  5
2B1
  8
1
  6
CONTINUOUS
 62
     7
 10
258.534135
 20
252.138739
 30
0.0
 11
258.534135
 21
244.138739
 31
0.0
  0
LINE
  5
2B2
  8
1
  6
CONTINUOUS
 62
     7
 10
257.956785
 20
253.138739
 30
0.0
 11
258.534135
 21
252.138739
 31
0.0
  0
LINE
  5
2B3
  8
1
  6
CONTINUOUS
 62
     7
 10
235.266186
 20
217.638739
 30
0.0
 11
260.034135
 21
217.638739
 31
0.0
  0
LINE
  5
2B4
  8
1
  6
CONTINUOUS
 62
     7
 10
232.534135
 20
217.638739
 30
0.0
 11
232.534135
 21
207.138739
 31
0.0
  0
LINE
  5
2B5
  8
1
  6
CONTINUOUS
 62
     7
 10
212.534135
 20
263.638739
 30
0.0
 11
212.534135
 21
254.638739
 31
0.0
  0
LINE
  5
2B6
  8
1
  6
CONTINUOUS
 62
     7
 10
258.534135
 20
244.138739
 30
0.0
 11
262.034135
 21
244.138739
 31
0.0
  0
ARC
  5
2B7
  8
1
  6
CONTINUOUS
 62
     7
 10
229.534135
 20
210.138739
 30
0.0
 40
3.0
 50
180.0
 51
270.0
  0
LINE
  5
2B8
  8
1
  6
CENTER
 62
     2
 10
216.534135
 20
209.138739
 30
0.0
 11
196.301544
 21
209.138739
 31
0.0
  0
LINE
  5
2B9
  8
1
  6
CONTINUOUS
 62
     7
 10
212.534135
 20
204.638739
 30
0.0
 11
205.534135
 21
204.638739
 31
0.0
  0
LINE
  5
2BA
  8
1
  6
CONTINUOUS
 62
     7
 10
212.534135
 20
213.638739
 30
0.0
 11
212.534135
 21
204.638739
 31
0.0
  0
ARC
  5
2BB
  8
1
  6
CONTINUOUS
 62
     7
 10
229.534135
 20
219.638739
 30
0.0
 40
3.0
 50
90.0
 51
180.0
  0
LINE
  5
2BC
  8
1
  6
CONTINUOUS
 62
     7
 10
257.534135
 20
222.638739
 30
0.0
 11
229.534135
 21
222.638739
 31
0.0
  0
LINE
  5
2BD
  8
1
  6
CONTINUOUS
 62
     7
 10
262.034135
 20
227.138739
 30
0.0
 11
257.534135
 21
222.638739
 31
0.0
  0
LINE
  5
2BE
  8
1
  6
CENTER
 62
     2
 10
216.534135
 20
259.138739
 30
0.0
 11
196.301544
 21
259.138739
 31
0.0
  0
LINE
  5
2BF
  8
1
  6
CONTINUOUS
 62
     7
 10
262.034135
 20
258.138739
 30
0.0
 11
262.034135
 21
227.138739
 31
0.0
  0
LINE
  5
2C0
  8
1
  6
CONTINUOUS
 62
     7
 10
237.534135
 20
253.763739
 30
0.0
 11
237.534135
 21
242.513739
 31
0.0
  0
LINE
  5
2C1
  8
1
  6
CONTINUOUS
 62
     7
 10
262.034135
 20
252.138739
 30
0.0
 11
258.534135
 21
252.138739
 31
0.0
  0
LINE
  5
2C2
  8
1
  6
CONTINUOUS
 62
     7
 10
205.534135
 20
213.638739
 30
0.0
 11
212.534135
 21
213.638739
 31
0.0
  0
LINE
  5
2C3
  8
1
  6
PHANTOM
 62
     5
 10
250.534135
 20
239.638739
 30
0.0
 11
250.534135
 21
314.638739
 31
0.0
  0
LINE
  5
2C4
  8
1
  6
PHANTOM
 62
     5
 10
254.534135
 20
239.638739
 30
0.0
 11
250.534135
 21
239.638739
 31
0.0
  0
LINE
  5
2C5
  8
1
  6
PHANTOM
 62
     5
 10
254.534135
 20
314.638739
 30
0.0
 11
254.534135
 21
239.638739
 31
0.0
  0
LINE
  5
2C6
  8
1
  6
CONTINUOUS
 62
     7
 10
232.534135
 20
207.138739
 30
0.0
 11
229.534135
 21
207.138739
 31
0.0
  0
LINE
  5
2C7
  8
1
  6
PHANTOM
 62
     5
 10
250.534135
 20
314.638739
 30
0.0
 11
254.534135
 21
314.638739
 31
0.0
  0
LINE
  5
2C8
  8
1
  6
CONTINUOUS
 62
     7
 10
237.034135
 20
255.638739
 30
0.0
 11
234.534135
 21
255.638739
 31
0.0
  0
LINE
  5
2C9
  8
1
  6
CONTINUOUS
 62
     7
 10
234.534135
 20
251.888739
 30
0.0
 11
237.034135
 21
251.888739
 31
0.0
  0
ARC
  5
2CA
  8
1
  6
CONTINUOUS
 62
     7
 10
263.034135
 20
258.138739
 30
0.0
 40
1.0
 50
90.0
 51
180.0
  0
LINE
  5
2CB
  8
1
  6
CONTINUOUS
 62
     7
 10
212.534135
 20
254.638739
 30
0.0
 11
205.534135
 21
254.638739
 31
0.0
  0
LINE
  5
2CC
  8
1
  6
CONTINUOUS
 62
     7
 10
205.534135
 20
263.638739
 30
0.0
 11
212.534135
 21
263.638739
 31
0.0
  0
LINE
  5
2CD
  8
1
  6
CONTINUOUS
 62
     7
 10
204.534135
 20
276.138739
 30
0.0
 11
205.534135
 21
276.138739
 31
0.0
  0
LINE
  5
2CE
  8
1
  6
CONTINUOUS
 62
     7
 10
204.534135
 20
192.138739
 30
0.0
 11
205.534135
 21
192.138739
 31
0.0
  0
ARC
  5
2CF
  8
1
  6
CONTINUOUS
 62
     7
 10
201.859542
 20
252.138739
 30
0.0
 40
2.0
 50
109.333006
 51
177.928617
  0
ARC
  5
2D0
  8
1
  6
CONTINUOUS
 62
     7
 10
202.209784
 20
208.206329
 30
0.0
 40
2.0
 50
182.98492
 51
251.58053
  0
ARC
  5
2D1
  8
1
  6
CONTINUOUS
 62
     7
 10
202.113606
 20
210.121719
 30
0.0
 40
2.0
 50
182.764273
 51
251.359884
  0
INSERT
  5
2D3
  8
1
  6
CONTINUOUS
 62
     7
  2
BLK587
 10
89.838235
 20
235.651247
 30
0.0
  0
LINE
  5
2D4
  8
1
  6
CONTINUOUS
 62
     7
 10
79.838235
 20
276.038729
 30
0.0
 11
79.838235
 21
309.138739
 31
0.0
  0
LINE
  5
2D5
  8
1
  6
CONTINUOUS
 62
     7
 10
84.838235
 20
314.138739
 30
0.0
 11
94.838235
 21
314.138739
 31
0.0
  0
LINE
  5
2D6
  8
1
  6
CONTINUOUS
 62
     7
 10
99.838235
 20
309.138739
 30
0.0
 11
99.838235
 21
276.038729
 31
0.0
  0
ARC
  5
2D7
  8
1
  6
CONTINUOUS
 62
     7
 10
84.838235
 20
309.138739
 30
0.0
 40
5.0
 50
90.0
 51
180.0
  0
ARC
  5
2D8
  8
1
  6
CONTINUOUS
 62
     7
 10
94.838235
 20
309.138739
 30
0.0
 40
5.0
 50
0.0
 51
90.0
  0
LINE
  5
2D9
  8
1
  6
HIDDEN
 62
     4
 10
359.463229
 20
253.046217
 30
0.0
 11
359.463229
 21
243.231262
 31
0.0
  0
LINE
  5
2DA
  8
1
  6
HIDDEN
 62
     4
 10
367.963229
 20
257.938739
 30
0.0
 11
359.463229
 21
253.046217
 31
0.0
  0
CIRCLE
  5
2DB
  8
1
  6
HIDDEN
 62
     4
 10
367.963229
 20
248.138739
 30
0.0
 40
8.5
  0
LINE
  5
2DC
  8
1
  6
HIDDEN
 62
     4
 10
359.463229
 20
243.231262
 30
0.0
 11
367.963229
 21
238.338739
 31
0.0
  0
LINE
  5
2DD
  8
1
  6
HIDDEN
 62
     4
 10
367.963229
 20
238.338739
 30
0.0
 11
376.463229
 21
243.231262
 31
0.0
  0
LINE
  5
2DE
  8
1
  6
HIDDEN
 62
     4
 10
376.463229
 20
243.231262
 30
0.0
 11
376.463229
 21
253.046217
 31
0.0
  0
LINE
  5
2DF
  8
1
  6
HIDDEN
 62
     4
 10
376.463229
 20
253.046217
 30
0.0
 11
367.963229
 21
257.938739
 31
0.0
  0
ARC
  5
2E3
  8
1
  6
CONTINUOUS
 62
     7
 10
329.713229
 20
212.630887
 30
0.0
 40
9.0
 50
180.0
 51
265.532003
  0
ARC
  5
2FA
  8
1
  6
CONTINUOUS
 62
     7
 10
201.791229
 20
218.138739
 30
0.0
 40
2.0
 50
113.245534
 51
181.841145
  0
INSERT
  5
2FD
  8
1
  6
CONTINUOUS
 62
     7
  2
BLK706
 10
339.963229
 20
233.138739
 30
0.0
  0
TEXT
  5
2FE
  8
1
  6
CONTINUOUS
 62
     1
 10
350.0
 20
20.0
 30
0.0
 40
5.0
  1
A-213-N
 41
0.978947
 72
     5
 11
381.0
 21
20.0
 31
0.0
  0
LINE
  5
2FF
  8
1
  6
CONTINUOUS
 62
     7
 10
568.473478
 20
213.938739
 30
0.0
 11
574.473478
 21
213.938739
 31
0.0
  0
LINE
  5
300
  8
1
  6
CONTINUOUS
 62
     7
 10
568.473478
 20
254.338739
 30
0.0
 11
568.473478
 21
213.938739
 31
0.0
  0
LINE
  5
301
  8
1
  6
CENTER
 62
     2
 10
457.967938
 20
209.138739
 30
0.0
 11
473.89048
 21
209.138739
 31
0.0
  0
LINE
  5
302
  8
1
  6
CENTER
 62
     2
 10
466.473478
 20
201.218593
 30
0.0
 11
466.473478
 21
218.264143
 31
0.0
  0
LINE
  5
303
  8
1
  6
CENTER
 62
     2
 10
565.967938
 20
209.138739
 30
0.0
 11
581.89048
 21
209.138739
 31
0.0
  0
LINE
  5
304
  8
1
  6
CENTER
 62
     2
 10
574.473478
 20
201.218593
 30
0.0
 11
574.473478
 21
218.264143
 31
0.0
  0
LINE
  5
305
  8
1
  6
CENTER
 62
     2
 10
565.967938
 20
259.138739
 30
0.0
 11
581.89048
 21
259.138739
 31
0.0
  0
LINE
  5
306
  8
1
  6
CENTER
 62
     2
 10
574.473478
 20
251.218593
 30
0.0
 11
574.473478
 21
268.264143
 31
0.0
  0
LINE
  5
307
  8
1
  6
CENTER
 62
     2
 10
466.473478
 20
251.218593
 30
0.0
 11
466.473478
 21
268.264143
 31
0.0
  0
LINE
  5
308
  8
1
  6
CENTER
 62
     2
 10
457.967938
 20
259.138739
 30
0.0
 11
473.89048
 21
259.138739
 31
0.0
  0
TEXT
  5
309
  8
1
  6
CONTINUOUS
 62
     1
 10
503.295065
 20
283.555771
 30
0.0
 40
2.8
  1
パネル穴明け寸法
 41
1.435714
 72
     5
 11
540.815065
 21
283.555771
 31
0.0
  0
LINE
  5
30A
  8
1
  6
CENTER
 62
     2
 10
520.473478
 20
273.138314
 30
0.0
 11
520.473478
 21
196.723108
 31
0.0
  0
LINE
  5
30B
  8
1
  6
CENTER
 62
     2
 10
457.208487
 20
248.138739
 30
0.0
 11
579.558255
 21
248.138739
 31
0.0
  0
ARC
  5
30C
  8
1
  6
CONTINUOUS
 62
     7
 10
466.473478
 20
259.138739
 30
0.0
 40
4.8
 50
90.0
 51
270.0
  0
ARC
  5
30D
  8
1
  6
CONTINUOUS
 62
     7
 10
466.473478
 20
209.138739
 30
0.0
 40
4.8
 50
90.0
 51
270.0
  0
ARC
  5
30E
  8
1
  6
CONTINUOUS
 62
     7
 10
574.473478
 20
209.138739
 30
0.0
 40
4.8
 50
270.0
 51
90.0
  0
ARC
  5
30F
  8
1
  6
CONTINUOUS
 62
     7
 10
574.473478
 20
259.138739
 30
0.0
 40
4.8
 50
270.0
 51
90.0
  0
LINE
  5
310
  8
1
  6
CONTINUOUS
 62
     7
 10
574.473478
 20
263.938739
 30
0.0
 11
566.747404
 21
263.938739
 31
0.0
  0
ARC
  5
311
  8
1
  6
CONTINUOUS
 62
     7
 10
481.473478
 20
209.638739
 30
0.0
 40
9.0
 50
216.0782
 51
270.0
  0
LINE
  5
312
  8
1
  6
CONTINUOUS
 62
     7
 10
559.473478
 20
267.638739
 30
0.0
 11
481.473478
 21
267.638739
 31
0.0
  0
ARC
  5
313
  8
1
  6
CONTINUOUS
 62
     7
 10
559.473478
 20
258.638739
 30
0.0
 40
9.0
 50
36.0782
 51
90.0
  0
LINE
  5
314
  8
1
  6
CONTINUOUS
 62
     7
 10
474.199552
 20
263.938739
 30
0.0
 11
466.473478
 21
263.938739
 31
0.0
  0
LINE
  5
315
  8
1
  6
CONTINUOUS
 62
     7
 10
466.473478
 20
254.338739
 30
0.0
 11
472.473478
 21
254.338739
 31
0.0
  0
LINE
  5
316
  8
1
  6
CONTINUOUS
 62
     7
 10
472.473478
 20
254.338739
 30
0.0
 11
472.473478
 21
213.938739
 31
0.0
  0
LINE
  5
317
  8
1
  6
CONTINUOUS
 62
     7
 10
472.473478
 20
213.938739
 30
0.0
 11
466.473478
 21
213.938739
 31
0.0
  0
LINE
  5
318
  8
1
  6
CONTINUOUS
 62
     7
 10
466.473478
 20
204.338739
 30
0.0
 11
474.199552
 21
204.338739
 31
0.0
  0
ARC
  5
319
  8
1
  6
CONTINUOUS
 62
     7
 10
559.473478
 20
209.638739
 30
0.0
 40
9.0
 50
270.0
 51
323.9218
  0
LINE
  5
31A
  8
1
  6
CONTINUOUS
 62
     7
 10
481.473478
 20
200.638739
 30
0.0
 11
559.473478
 21
200.638739
 31
0.0
  0
LINE
  5
31B
  8
1
  6
CONTINUOUS
 62
     7
 10
566.747404
 20
204.338739
 30
0.0
 11
574.473478
 21
204.338739
 31
0.0
  0
LINE
  5
31C
  8
1
  6
CONTINUOUS
 62
     7
 10
574.473478
 20
254.338739
 30
0.0
 11
568.473478
 21
254.338739
 31
0.0
  0
ARC
  5
31D
  8
1
  6
CONTINUOUS
 62
     7
 10
481.473478
 20
258.638739
 30
0.0
 40
9.0
 50
90.0
 51
143.9218
  0
ARC
  5
353
  8
0
  6
CONTINUOUS
 10
202.563311
 20
202.138739
 30
0.0
 40
2.0
 50
115.088584
 51
183.689934
  0
INSERT
  5
539
  8
0
  6
CONTINUOUS
  2
BLK108
 10
367.963229
 20
212.138739
 30
0.0
  0
LINE
  5
5DA
  8
1
  6
CONTINUOUS
 62
     7
 10
81.706334
 20
111.837748
 30
0.0
 11
79.447182
 21
124.747185
 31
0.0
  0
LINE
  5
5DB
  8
1
  6
CONTINUOUS
 62
     7
 10
85.117684
 20
108.497185
 30
0.0
 11
94.558786
 21
108.497185
 31
0.0
  0
LINE
  5
5DC
  8
1
  6
CONTINUOUS
 62
     7
 10
79.447182
 20
124.747185
 30
0.0
 11
100.229288
 21
124.747185
 31
0.0
  0
ARC
  5
5DD
  8
1
  6
CONTINUOUS
 62
     7
 10
80.338235
 20
107.028558
 30
0.0
 40
5.0
 50
17.081122
 51
74.120225
  0
ARC
  5
5DE
  8
1
  6
CONTINUOUS
 62
     7
 10
99.338235
 20
107.028558
 30
0.0
 40
5.0
 50
105.879775
 51
162.918878
  0
LINE
  5
5DF
  8
1
  6
CONTINUOUS
 62
     7
 10
89.838235
 20
134.747185
 30
0.0
 11
100.636632
 21
131.507666
 31
0.0
  0
LINE
  5
5E0
  8
1
  6
CONTINUOUS
 62
     7
 10
89.838235
 20
134.747185
 30
0.0
 11
79.039838
 21
131.507666
 31
0.0
  0
LINE
  5
5E1
  8
1
  6
CONTINUOUS
 62
     7
 10
98.838235
 20
110.997185
 30
0.0
 11
102.031997
 21
129.247253
 31
0.0
  0
LINE
  5
5E2
  8
1
  6
CONTINUOUS
 62
     7
 10
97.98037
 20
129.694468
 30
0.0
 11
89.838235
 21
132.137109
 31
0.0
  0
LINE
  5
5E3
  8
1
  6
CONTINUOUS
 62
     7
 10
81.6961
 20
129.694468
 30
0.0
 11
89.838235
 21
132.137109
 31
0.0
  0
LINE
  5
5E4
  8
1
  6
CONTINUOUS
 62
     7
 10
80.838235
 20
110.997185
 30
0.0
 11
77.644473
 21
129.247253
 31
0.0
  0
ARC
  5
5E5
  8
1
  6
CONTINUOUS
 62
     7
 10
99.338235
 20
107.028558
 30
0.0
 40
4.0
 50
97.180756
 51
180.0
  0
ARC
  5
5E6
  8
1
  6
CONTINUOUS
 62
     7
 10
80.338235
 20
107.028558
 30
0.0
 40
4.0
 50
0.0
 51
82.819244
  0
LINE
  5
5E7
  8
1
  6
CONTINUOUS
 62
     7
 10
82.055285
 20
127.247185
 30
0.0
 11
97.621185
 21
127.247185
 31
0.0
  0
ARC
  5
5E8
  8
1
  6
CONTINUOUS
 62
     7
 10
82.055285
 20
128.497185
 30
0.0
 40
1.25
 50
106.699244
 51
270.0
  0
LINE
  5
5E9
  8
1
  6
CONTINUOUS
 62
     7
 10
84.338235
 20
107.028558
 30
0.0
 11
84.338235
 21
99.997185
 31
0.0
  0
LINE
  5
5EA
  8
1
  6
CONTINUOUS
 62
     7
 10
95.338235
 20
107.028558
 30
0.0
 11
95.338235
 21
99.997185
 31
0.0
  0
ARC
  5
5EB
  8
1
  6
CONTINUOUS
 62
     7
 10
97.621185
 20
128.497185
 30
0.0
 40
1.25
 50
270.0
 51
73.300756
  0
LINE
  5
5EC
  8
1
  6
CONTINUOUS
 62
     7
 10
84.638235
 20
99.697185
 30
0.0
 11
86.138235
 21
99.697185
 31
0.0
  0
LINE
  5
5ED
  8
1
  6
CONTINUOUS
 62
     7
 10
93.538235
 20
99.697185
 30
0.0
 11
95.038235
 21
99.697185
 31
0.0
  0
ARC
  5
5EE
  8
1
  6
CONTINUOUS
 62
     7
 10
89.838235
 20
81.697185
 30
0.0
 40
1.0
 50
220.0
 51
320.0
  0
LINE
  5
5EF
  8
1
  6
CONTINUOUS
 62
     7
 10
93.538235
 20
99.697185
 30
0.0
 11
93.538235
 21
84.55095
 31
0.0
  0
LINE
  5
5F0
  8
1
  6
CONTINUOUS
 62
     7
 10
86.138235
 20
84.55095
 30
0.0
 11
86.138235
 21
99.697185
 31
0.0
  0
ARC
  5
5F1
  8
1
  6
CONTINUOUS
 62
     7
 10
100.061936
 20
129.592014
 30
0.0
 40
2.0
 50
350.073754
 51
73.300756
  0
LINE
  5
5F2
  8
1
  6
CONTINUOUS
 62
     7
 10
89.072191
 20
81.054398
 30
0.0
 11
86.138235
 21
84.55095
 31
0.0
  0
LINE
  5
5F3
  8
1
  6
CONTINUOUS
 62
     7
 10
90.60428
 20
81.054398
 30
0.0
 11
93.538235
 21
84.55095
 31
0.0
  0
ARC
  5
5F4
  8
1
  6
CONTINUOUS
 62
     7
 10
79.614534
 20
129.592014
 30
0.0
 40
2.0
 50
106.699244
 51
189.926246
  0
LINE
  5
5F5
  8
1
  6
CENTER
 62
     2
 10
89.838235
 20
137.747185
 30
0.0
 11
89.838235
 21
122.297185
 31
0.0
  0
LINE
  5
5F6
  8
1
  6
CONTINUOUS
 62
     7
 10
100.229288
 20
124.747185
 30
0.0
 11
97.970137
 21
111.837748
 31
0.0
  0
INSERT
  5
5F7
  8
1
  6
CONTINUOUS
 62
     7
  2
BLK107
 10
89.838235
 20
119.997185
 30
0.0
  0
LINE
  5
5F8
  8
1
  6
CENTER
 62
     2
 10
89.838235
 20
119.697185
 30
0.0
 11
89.838235
 21
77.697185
 31
0.0
  0
ARC
  5
5F9
  8
1
  6
CONTINUOUS
 62
     7
 10
84.638235
 20
99.997185
 30
0.0
 40
0.3
 50
180.0
 51
270.0
  0
ARC
  5
5FA
  8
1
  6
CONTINUOUS
 62
     7
 10
95.038235
 20
99.997185
 30
0.0
 40
0.3
 50
270.0
 51
0.0
  0
ENDSEC
  0
EOF

