  0
SECTION
  2
HEADER
  9
$ACADVER
  1
AC1009
  9
$INSBASE
 10
0.0
 20
0.0
 30
0.0
  9
$EXTMIN
 10
76.754926
 20
20.0
 30
0.0
  9
$EXTMAX
 10
697.71852
 20
561.396209
 30
0.0
  9
$LIMMIN
 10
0.0
 20
0.0
  9
$LIMMAX
 10
841.0
 20
594.0
  9
$ORTHOMODE
 70
     0
  9
$REGENMODE
 70
     1
  9
$FILLMODE
 70
     1
  9
$QTEXTMODE
 70
     0
  9
$MIRRTEXT
 70
     1
  9
$DRAGMODE
 70
     2
  9
$LTSCALE
 40
1.0
  9
$OSMODE
 70
     0
  9
$ATTMODE
 70
     1
  9
$TEXTSIZE
 40
3.2
  9
$TRACEWID
 40
0.05
  9
$TEXTSTYLE
  7
STANDARD
  9
$CLAYER
  8
0
  9
$CELTYPE
  6
CONTINUOUS
  9
$CECOLOR
 62
   256
  9
$DIMSCALE
 40
1.0
  9
$DIMASZ
 40
0.18
  9
$DIMEXO
 40
0.0625
  9
$DIMDLI
 40
0.38
  9
$DIMRND
 40
0.0
  9
$DIMDLE
 40
0.0
  9
$DIMEXE
 40
0.18
  9
$DIMTP
 40
0.0
  9
$DIMTM
 40
0.0
  9
$DIMTXT
 40
0.18
  9
$DIMCEN
 40
0.09
  9
$DIMTSZ
 40
0.0
  9
$DIMTOL
 70
     0
  9
$DIMLIM
 70
     0
  9
$DIMTIH
 70
     1
  9
$DIMTOH
 70
     1
  9
$DIMSE1
 70
     0
  9
$DIMSE2
 70
     0
  9
$DIMTAD
 70
     0
  9
$DIMZIN
 70
     0
  9
$DIMBLK
  1

  9
$DIMASO
 70
     1
  9
$DIMSHO
 70
     1
  9
$DIMPOST
  1

  9
$DIMAPOST
  1

  9
$DIMALT
 70
     0
  9
$DIMALTD
 70
     2
  9
$DIMALTF
 40
25.4
  9
$DIMLFAC
 40
1.0
  9
$DIMTOFL
 70
     0
  9
$DIMTVP
 40
0.0
  9
$DIMTIX
 70
     0
  9
$DIMSOXD
 70
     0
  9
$DIMSAH
 70
     0
  9
$DIMBLK1
  1

  9
$DIMBLK2
  1

  9
$DIMSTYLE
  2
STANDARD
  9
$DIMCLRD
 70
     0
  9
$DIMCLRE
 70
     0
  9
$DIMCLRT
 70
     0
  9
$DIMTFAC
 40
1.0
  9
$DIMGAP
 40
0.09
  9
$LUNITS
 70
     2
  9
$LUPREC
 70
     4
  9
$SKETCHINC
 40
0.1
  9
$FILLETRAD
 40
1.0
  9
$AUNITS
 70
     0
  9
$AUPREC
 70
     0
  9
$MENU
  1
acad
  9
$ELEVATION
 40
0.0
  9
$PELEVATION
 40
0.0
  9
$THICKNESS
 40
0.0
  9
$LIMCHECK
 70
     0
  9
$BLIPMODE
 70
     0
  9
$CHAMFERA
 40
0.0
  9
$CHAMFERB
 40
0.0
  9
$SKPOLY
 70
     0
  9
$TDCREATE
 40
2451359.602431
  9
$TDUPDATE
 40
2451388.560049
  9
$TDINDWG
 40
0.127103
  9
$TDUSRTIMER
 40
0.127103
  9
$USRTIMER
 70
     1
  9
$ANGBASE
 50
0.0
  9
$ANGDIR
 70
     0
  9
$PDMODE
 70
     0
  9
$PDSIZE
 40
0.0
  9
$PLINEWID
 40
0.0
  9
$COORDS
 70
     1
  9
$SPLFRAME
 70
     0
  9
$SPLINETYPE
 70
     6
  9
$SPLINESEGS
 70
     8
  9
$ATTDIA
 70
     0
  9
$ATTREQ
 70
     1
  9
$HANDLING
 70
     1
  9
$HANDSEED
  5
7A8
  9
$SURFTAB1
 70
     6
  9
$SURFTAB2
 70
     6
  9
$SURFTYPE
 70
     6
  9
$SURFU
 70
     6
  9
$SURFV
 70
     6
  9
$UCSNAME
  2

  9
$UCSORG
 10
0.0
 20
0.0
 30
0.0
  9
$UCSXDIR
 10
1.0
 20
0.0
 30
0.0
  9
$UCSYDIR
 10
0.0
 20
1.0
 30
0.0
  9
$PUCSNAME
  2

  9
$PUCSORG
 10
0.0
 20
0.0
 30
0.0
  9
$PUCSXDIR
 10
1.0
 20
0.0
 30
0.0
  9
$PUCSYDIR
 10
0.0
 20
1.0
 30
0.0
  9
$USERI1
 70
     0
  9
$USERI2
 70
     0
  9
$USERI3
 70
     0
  9
$USERI4
 70
     0
  9
$USERI5
 70
     0
  9
$USERR1
 40
0.0
  9
$USERR2
 40
0.0
  9
$USERR3
 40
0.0
  9
$USERR4
 40
0.0
  9
$USERR5
 40
0.0
  9
$WORLDVIEW
 70
     1
  9
$SHADEDGE
 70
     3
  9
$SHADEDIF
 70
    70
  9
$TILEMODE
 70
     1
  9
$MAXACTVP
 70
    48
  9
$PLIMCHECK
 70
     0
  9
$PEXTMIN
 10
1.000000E+020
 20
1.000000E+020
 30
1.000000E+020
  9
$PEXTMAX
 10
-1.000000E+020
 20
-1.000000E+020
 30
-1.000000E+020
  9
$PLIMMIN
 10
0.0
 20
0.0
  9
$PLIMMAX
 10
12.0
 20
9.0
  9
$UNITMODE
 70
     0
  9
$VISRETAIN
 70
     1
  9
$PLINEGEN
 70
     0
  9
$PSLTSCALE
 70
     0
  0
ENDSEC
  0
SECTION
  2
TABLES
  0
TABLE
  2
VPORT
 70
     2
  0
VPORT
  2
*ACTIVE
 70
     0
 10
0.0
 20
0.0
 11
1.0
 21
1.0
 12
544.894422
 22
332.827404
 13
0.0
 23
0.0
 14
1.0
 24
1.0
 15
0.0
 25
0.0
 16
0.0
 26
0.0
 36
1.0
 17
0.0
 27
0.0
 37
0.0
 40
665.654808
 41
1.637168
 42
50.0
 43
0.0
 44
0.0
 50
0.0
 51
0.0
 71
     0
 72
   100
 73
     1
 74
     1
 75
     0
 76
     0
 77
     0
 78
     0
  0
ENDTAB
  0
TABLE
  2
LTYPE
 70
     4
  0
LTYPE
  2
CONTINUOUS
 70
     0
  3
______________
 72
    65
 73
     0
 40
0.0
  0
LTYPE
  2
CENTER
 70
     0
  3
Center ____ _ ____ _ ____ _ ____ _ ____ _ ____
 72
    65
 73
     4
 40
2.0
 49
1.25
 49
-0.25
 49
0.25
 49
-0.25
  0
LTYPE
  2
HIDDEN
 70
     0
  3
Hidden __ __ __ __ __ __ __ __ __ __ __ __ __ _
 72
    65
 73
     2
 40
0.375
 49
0.25
 49
-0.125
  0
LTYPE
  2
PHANTOM
 70
     0
  3
Phantom ______  __  __  ______  __  __  ______
 72
    65
 73
     6
 40
2.5
 49
1.25
 49
-0.25
 49
0.25
 49
-0.25
 49
0.25
 49
-0.25
  0
ENDTAB
  0
TABLE
  2
LAYER
 70
     2
  0
LAYER
  2
0
 70
     0
 62
     7
  6
CONTINUOUS
  0
LAYER
  2
1
 70
     0
 62
     7
  6
CONTINUOUS
  0
ENDTAB
  0
TABLE
  2
STYLE
 70
     2
  0
STYLE
  2
STANDARD
 70
     0
 40
0.0
 41
1.0
 50
0.0
 71
     0
 42
3.2
  3
TXT
  4
EXTFONT
  0
ENDTAB
  0
TABLE
  2
VIEW
 70
     0
  0
ENDTAB
  0
TABLE
  2
UCS
 70
     0
  0
ENDTAB
  0
TABLE
  2
APPID
 70
     4
  0
APPID
  2
ACAD
 70
     0
  0
APPID
  2
CONTENTTABDATA
 70
     0
  0
APPID
  2
CONTENTCURRENTTAB
 70
     0
  0
APPID
  2
CONTENTBLOCKICON
 70
     0
  0
ENDTAB
  0
TABLE
  2
DIMSTYLE
 70
     1
  0
DIMSTYLE
  2
STANDARD
 70
     0
  3

  4

  5

  6

  7

 40
1.0
 41
0.18
 42
0.0625
 43
0.38
 44
0.18
 45
0.0
 46
0.0
 47
0.0
 48
0.0
140
0.18
141
0.09
142
0.0
143
25.4
144
1.0
145
0.0
146
1.0
147
0.09
 71
     0
 72
     0
 73
     1
 74
     1
 75
     0
 76
     0
 77
     0
 78
     0
170
     0
171
     2
172
     0
173
     0
174
     0
175
     0
176
     0
177
     0
178
     0
  0
ENDTAB
  0
ENDSEC
  0
SECTION
  2
BLOCKS
  0
BLOCK
  8
0
  2
$MODEL_SPACE
 70
     0
 10
0.0
 20
0.0
 30
0.0
  3
$MODEL_SPACE
  1

  0
ENDBLK
  5
749
  8
0
  0
BLOCK
 67
     1
  8
0
  2
$PAPER_SPACE
 70
     0
 10
0.0
 20
0.0
 30
0.0
  3
$PAPER_SPACE
  1

  0
ENDBLK
  5
747
 67
     1
  8
0
  0
BLOCK
  8
0
  2
BLK109
 70
     0
 10
270.854365
 20
147.066018
 30
0.0
  3
BLK109
  1

  0
LINE
  5
62C
  8
1
  6
CONTINUOUS
 62
     2
 10
277.729365
 20
149.566018
 30
0.0
 11
277.729365
 21
147.941018
 31
0.0
  0
LINE
  5
62D
  8
1
  6
CONTINUOUS
 62
     2
 10
276.604365
 20
149.566018
 30
0.0
 11
277.729365
 21
147.941018
 31
0.0
  0
LINE
  5
62E
  8
1
  6
CONTINUOUS
 62
     2
 10
276.604365
 20
149.566018
 30
0.0
 11
275.854365
 21
149.566018
 31
0.0
  0
LINE
  5
62F
  8
1
  6
CONTINUOUS
 62
     2
 10
275.854365
 20
149.566018
 30
0.0
 11
275.854365
 21
147.066018
 31
0.0
  0
LINE
  5
630
  8
1
  6
CONTINUOUS
 62
     2
 10
275.854365
 20
147.066018
 30
0.0
 11
276.479365
 21
147.066018
 31
0.0
  0
LINE
  5
631
  8
1
  6
CONTINUOUS
 62
     2
 10
276.479365
 20
147.066018
 30
0.0
 11
276.479365
 21
148.691018
 31
0.0
  0
LINE
  5
632
  8
1
  6
CONTINUOUS
 62
     2
 10
275.729365
 20
147.066018
 30
0.0
 11
275.729365
 21
147.691018
 31
0.0
  0
LINE
  5
633
  8
1
  6
CONTINUOUS
 62
     2
 10
278.354365
 20
149.566018
 30
0.0
 11
277.729365
 21
149.566018
 31
0.0
  0
LINE
  5
634
  8
1
  6
CONTINUOUS
 62
     2
 10
278.354365
 20
147.066018
 30
0.0
 11
277.604365
 21
147.066018
 31
0.0
  0
LINE
  5
635
  8
1
  6
CONTINUOUS
 62
     2
 10
273.479365
 20
148.566018
 30
0.0
 11
273.479365
 21
148.816018
 31
0.0
  0
LINE
  5
636
  8
1
  6
CONTINUOUS
 62
     2
 10
272.854365
 20
148.566018
 30
0.0
 11
273.479365
 21
148.566018
 31
0.0
  0
LINE
  5
637
  8
1
  6
CONTINUOUS
 62
     2
 10
272.854365
 20
148.691018
 30
0.0
 11
272.854365
 21
148.566018
 31
0.0
  0
LINE
  5
638
  8
1
  6
CONTINUOUS
 62
     2
 10
271.854365
 20
148.941018
 30
0.0
 11
272.604365
 21
148.941018
 31
0.0
  0
LINE
  5
639
  8
1
  6
CONTINUOUS
 62
     2
 10
271.604365
 20
147.941018
 30
0.0
 11
271.604365
 21
148.691018
 31
0.0
  0
LINE
  5
63A
  8
1
  6
CONTINUOUS
 62
     2
 10
272.604365
 20
147.691018
 30
0.0
 11
271.854365
 21
147.691018
 31
0.0
  0
LINE
  5
63B
  8
1
  6
CONTINUOUS
 62
     2
 10
272.229365
 20
147.941018
 30
0.0
 11
272.854365
 21
147.941018
 31
0.0
  0
LINE
  5
63C
  8
1
  6
CONTINUOUS
 62
     2
 10
272.229365
 20
148.441018
 30
0.0
 11
272.229365
 21
147.941018
 31
0.0
  0
LINE
  5
63D
  8
1
  6
CONTINUOUS
 62
     2
 10
273.479365
 20
148.441018
 30
0.0
 11
272.229365
 21
148.441018
 31
0.0
  0
LINE
  5
63E
  8
1
  6
CONTINUOUS
 62
     2
 10
273.479365
 20
147.816018
 30
0.0
 11
273.479365
 21
148.441018
 31
0.0
  0
LINE
  5
63F
  8
1
  6
CONTINUOUS
 62
     2
 10
273.604365
 20
147.066018
 30
0.0
 11
275.729365
 21
147.066018
 31
0.0
  0
ARC
  5
640
  8
1
  6
CONTINUOUS
 62
     2
 10
272.729365
 20
147.816018
 30
0.0
 40
0.75
 50
270.0
 51
0.0
  0
ARC
  5
641
  8
1
  6
CONTINUOUS
 62
     2
 10
271.729365
 20
147.816018
 30
0.0
 40
0.75
 50
180.0
 51
270.0
  0
ARC
  5
642
  8
1
  6
CONTINUOUS
 62
     2
 10
272.604365
 20
148.691018
 30
0.0
 40
0.25
 50
0.0
 51
90.0
  0
ARC
  5
643
  8
1
  6
CONTINUOUS
 62
     2
 10
272.729365
 20
148.816018
 30
0.0
 40
0.75
 50
0.0
 51
90.0
  0
LINE
  5
644
  8
1
  6
CONTINUOUS
 62
     2
 10
273.604365
 20
149.566018
 30
0.0
 11
273.604365
 21
147.066018
 31
0.0
  0
LINE
  5
645
  8
1
  6
CONTINUOUS
 62
     2
 10
275.729365
 20
149.566018
 30
0.0
 11
273.604365
 21
149.566018
 31
0.0
  0
LINE
  5
646
  8
1
  6
CONTINUOUS
 62
     2
 10
278.354365
 20
149.566018
 30
0.0
 11
278.354365
 21
147.066018
 31
0.0
  0
LINE
  5
647
  8
1
  6
CONTINUOUS
 62
     2
 10
269.104365
 20
148.441018
 30
0.0
 11
269.979365
 21
149.566018
 31
0.0
  0
LINE
  5
648
  8
1
  6
CONTINUOUS
 62
     2
 10
270.229365
 20
147.066018
 30
0.0
 11
270.854365
 21
147.066018
 31
0.0
  0
LINE
  5
649
  8
1
  6
CONTINUOUS
 62
     2
 10
269.979365
 20
149.566018
 30
0.0
 11
269.229365
 21
149.566018
 31
0.0
  0
LINE
  5
64A
  8
1
  6
CONTINUOUS
 62
     2
 10
269.229365
 20
149.566018
 30
0.0
 11
268.354365
 21
148.441018
 31
0.0
  0
ARC
  5
64B
  8
1
  6
CONTINUOUS
 62
     2
 10
271.854365
 20
147.941018
 30
0.0
 40
0.25
 50
180.0
 51
270.0
  0
LINE
  5
64C
  8
1
  6
CONTINUOUS
 62
     2
 10
270.854365
 20
149.566018
 30
0.0
 11
270.229365
 21
149.566018
 31
0.0
  0
LINE
  5
64D
  8
1
  6
CONTINUOUS
 62
     2
 10
269.354365
 20
147.066018
 30
0.0
 11
270.104365
 21
147.066018
 31
0.0
  0
ARC
  5
64E
  8
1
  6
CONTINUOUS
 62
     2
 10
271.729365
 20
148.816018
 30
0.0
 40
0.75
 50
90.0
 51
180.0
  0
LINE
  5
64F
  8
1
  6
CONTINUOUS
 62
     2
 10
270.104365
 20
147.066018
 30
0.0
 11
269.104365
 21
148.441018
 31
0.0
  0
LINE
  5
650
  8
1
  6
CONTINUOUS
 62
     2
 10
270.854365
 20
147.066018
 30
0.0
 11
270.854365
 21
149.566018
 31
0.0
  0
LINE
  5
651
  8
1
  6
CONTINUOUS
 62
     2
 10
268.354365
 20
149.566018
 30
0.0
 11
267.729365
 21
149.566018
 31
0.0
  0
LINE
  5
652
  8
1
  6
CONTINUOUS
 62
     2
 10
268.354365
 20
148.441018
 30
0.0
 11
269.354365
 21
147.066018
 31
0.0
  0
LINE
  5
653
  8
1
  6
CONTINUOUS
 62
     2
 10
266.869365
 20
147.441018
 30
0.0
 11
267.004365
 21
147.066018
 31
0.0
  0
LINE
  5
654
  8
1
  6
CONTINUOUS
 62
     2
 10
274.229365
 20
147.691018
 30
0.0
 11
274.229365
 21
148.066018
 31
0.0
  0
LINE
  5
655
  8
1
  6
CONTINUOUS
 62
     2
 10
275.729365
 20
147.691018
 30
0.0
 11
274.229365
 21
147.691018
 31
0.0
  0
LINE
  5
656
  8
1
  6
CONTINUOUS
 62
     2
 10
266.354365
 20
148.871573
 30
0.0
 11
266.653365
 21
148.041018
 31
0.0
  0
LINE
  5
657
  8
1
  6
CONTINUOUS
 62
     2
 10
267.629365
 20
147.066018
 30
0.0
 11
267.004365
 21
147.066018
 31
0.0
  0
LINE
  5
658
  8
1
  6
CONTINUOUS
 62
     2
 10
266.354365
 20
148.871573
 30
0.0
 11
266.055365
 21
148.041018
 31
0.0
  0
ARC
  5
659
  8
1
  6
CONTINUOUS
 62
     2
 10
272.604365
 20
147.941018
 30
0.0
 40
0.25
 50
270.0
 51
0.0
  0
LINE
  5
65A
  8
1
  6
CONTINUOUS
 62
     2
 10
268.354365
 20
147.066018
 30
0.0
 11
268.354365
 21
149.566018
 31
0.0
  0
LINE
  5
65B
  8
1
  6
CONTINUOUS
 62
     2
 10
265.079365
 20
147.066018
 30
0.0
 11
265.704365
 21
147.066018
 31
0.0
  0
LINE
  5
65C
  8
1
  6
CONTINUOUS
 62
     2
 10
265.979365
 20
149.566018
 30
0.0
 11
266.729365
 21
149.566018
 31
0.0
  0
LINE
  5
65D
  8
1
  6
CONTINUOUS
 62
     2
 10
266.729365
 20
149.566018
 30
0.0
 11
267.629365
 21
147.066018
 31
0.0
  0
LINE
  5
65E
  8
1
  6
CONTINUOUS
 62
     2
 10
265.979365
 20
149.566018
 30
0.0
 11
265.079365
 21
147.066018
 31
0.0
  0
LINE
  5
65F
  8
1
  6
CONTINUOUS
 62
     2
 10
270.229365
 20
149.566018
 30
0.0
 11
270.229365
 21
147.066018
 31
0.0
  0
LINE
  5
660
  8
1
  6
CONTINUOUS
 62
     2
 10
276.479365
 20
148.691018
 30
0.0
 11
277.604365
 21
147.066018
 31
0.0
  0
LINE
  5
661
  8
1
  6
CONTINUOUS
 62
     2
 10
266.055365
 20
148.041018
 30
0.0
 11
266.653365
 21
148.041018
 31
0.0
  0
LINE
  5
662
  8
1
  6
CONTINUOUS
 62
     2
 10
265.839365
 20
147.441018
 30
0.0
 11
265.704365
 21
147.066018
 31
0.0
  0
LINE
  5
663
  8
1
  6
CONTINUOUS
 62
     2
 10
266.869365
 20
147.441018
 30
0.0
 11
265.839365
 21
147.441018
 31
0.0
  0
LINE
  5
664
  8
1
  6
CONTINUOUS
 62
     2
 10
272.729365
 20
149.566018
 30
0.0
 11
271.729365
 21
149.566018
 31
0.0
  0
LINE
  5
665
  8
1
  6
CONTINUOUS
 62
     2
 10
265.729365
 20
149.016018
 30
0.0
 11
265.729365
 21
149.566018
 31
0.0
  0
LINE
  5
666
  8
1
  6
CONTINUOUS
 62
     2
 10
264.854365
 20
149.016018
 30
0.0
 11
265.729365
 21
149.016018
 31
0.0
  0
LINE
  5
667
  8
1
  6
CONTINUOUS
 62
     2
 10
264.854365
 20
147.066018
 30
0.0
 11
264.854365
 21
149.016018
 31
0.0
  0
LINE
  5
668
  8
1
  6
CONTINUOUS
 62
     2
 10
264.229365
 20
147.066018
 30
0.0
 11
264.854365
 21
147.066018
 31
0.0
  0
LINE
  5
669
  8
1
  6
CONTINUOUS
 62
     2
 10
264.229365
 20
149.016018
 30
0.0
 11
264.229365
 21
147.066018
 31
0.0
  0
LINE
  5
66A
  8
1
  6
CONTINUOUS
 62
     2
 10
263.354365
 20
149.016018
 30
0.0
 11
264.229365
 21
149.016018
 31
0.0
  0
LINE
  5
66B
  8
1
  6
CONTINUOUS
 62
     2
 10
263.354365
 20
149.566018
 30
0.0
 11
263.354365
 21
149.016018
 31
0.0
  0
LINE
  5
66C
  8
1
  6
CONTINUOUS
 62
     2
 10
265.729365
 20
149.566018
 30
0.0
 11
263.354365
 21
149.566018
 31
0.0
  0
LINE
  5
66D
  8
1
  6
CONTINUOUS
 62
     2
 10
267.729365
 20
147.066018
 30
0.0
 11
268.354365
 21
147.066018
 31
0.0
  0
LINE
  5
66E
  8
1
  6
CONTINUOUS
 62
     2
 10
267.729365
 20
149.566018
 30
0.0
 11
267.729365
 21
147.066018
 31
0.0
  0
LINE
  5
66F
  8
1
  6
CONTINUOUS
 62
     2
 10
270.979365
 20
148.816018
 30
0.0
 11
270.979365
 21
147.816018
 31
0.0
  0
ARC
  5
670
  8
1
  6
CONTINUOUS
 62
     2
 10
271.854365
 20
148.691018
 30
0.0
 40
0.25
 50
90.0
 51
180.0
  0
LINE
  5
671
  8
1
  6
CONTINUOUS
 62
     2
 10
271.729365
 20
147.066018
 30
0.0
 11
272.729365
 21
147.066018
 31
0.0
  0
LINE
  5
672
  8
1
  6
CONTINUOUS
 62
     2
 10
274.229365
 20
148.066018
 30
0.0
 11
275.604365
 21
148.066018
 31
0.0
  0
LINE
  5
673
  8
1
  6
CONTINUOUS
 62
     2
 10
275.604365
 20
148.066018
 30
0.0
 11
275.604365
 21
148.628518
 31
0.0
  0
LINE
  5
674
  8
1
  6
CONTINUOUS
 62
     2
 10
275.604365
 20
148.628518
 30
0.0
 11
274.229365
 21
148.628518
 31
0.0
  0
LINE
  5
675
  8
1
  6
CONTINUOUS
 62
     2
 10
274.229365
 20
148.628518
 30
0.0
 11
274.229365
 21
149.016018
 31
0.0
  0
LINE
  5
676
  8
1
  6
CONTINUOUS
 62
     2
 10
274.229365
 20
149.016018
 30
0.0
 11
275.729365
 21
149.016018
 31
0.0
  0
LINE
  5
677
  8
1
  6
CONTINUOUS
 62
     2
 10
275.729365
 20
149.016018
 30
0.0
 11
275.729365
 21
149.566018
 31
0.0
  0
ENDBLK
  5
679
  8
0
  0
BLOCK
  8
0
  2
BLK110
 70
     0
 10
270.854365
 20
147.066018
 30
0.0
  3
BLK110
  1

  0
INSERT
  5
67B
  8
1
  6
CONTINUOUS
 62
     7
  2
BLK109
 10
270.854365
 20
147.066018
 30
0.0
  0
ENDBLK
  5
67D
  8
0
  0
ENDSEC
  0
SECTION
  2
ENTITIES
  0
LINE
  5
AD
  8
0
  6
PHANTOM
 62
     5
 10
299.104225
 20
383.125233
 30
0.0
 11
341.638586
 21
332.847835
 31
0.0
  0
LINE
  5
AE
  8
0
  6
PHANTOM
 62
     5
 10
345.734371
 20
332.389541
 30
0.0
 11
349.191789
 21
334.994893
 31
0.0
  0
LINE
  5
AF
  8
0
  6
CONTINUOUS
 62
     7
 10
209.708977
 20
446.601189
 30
0.0
 11
219.708977
 21
446.601189
 31
0.0
  0
LINE
  5
B0
  8
0
  6
CONTINUOUS
 62
     7
 10
209.708977
 20
444.401189
 30
0.0
 11
209.708977
 21
446.601189
 31
0.0
  0
LINE
  5
B1
  8
0
  6
PHANTOM
 62
     5
 10
163.595788
 20
459.251189
 30
0.0
 11
178.319904
 21
459.251189
 31
0.0
  0
LINE
  5
B2
  8
0
  6
PHANTOM
 62
     5
 10
163.595788
 20
431.751189
 30
0.0
 11
178.319904
 21
431.751189
 31
0.0
  0
CIRCLE
  5
B3
  8
0
  6
PHANTOM
 62
     5
 10
170.319904
 20
257.122197
 30
0.0
 40
4.5
  0
ARC
  5
B4
  8
0
  6
PHANTOM
 62
     5
 10
170.319904
 20
257.122197
 30
0.0
 40
8.034797
 50
249.509099
 51
110.930642
  0
LINE
  5
B5
  8
0
  6
PHANTOM
 62
     5
 10
153.854702
 20
181.29413
 30
0.0
 11
155.819904
 21
181.122197
 31
0.0
  0
LINE
  5
B6
  8
0
  6
PHANTOM
 62
     5
 10
154.819904
 20
266.072197
 30
0.0
 11
154.819904
 21
247.988558
 31
0.0
  0
LINE
  5
B7
  8
0
  6
CENTER
 62
     2
 10
170.319904
 20
267.122197
 30
0.0
 11
170.319904
 21
247.122197
 31
0.0
  0
LINE
  5
B8
  8
0
  6
CENTER
 62
     2
 10
160.319904
 20
257.122197
 30
0.0
 11
180.319904
 21
257.122197
 31
0.0
  0
ARC
  5
B9
  8
0
  6
PHANTOM
 62
     5
 10
170.319904
 20
257.122197
 30
0.0
 40
7.0
 50
277.611862
 51
82.388138
  0
LINE
  5
BA
  8
0
  6
PHANTOM
 62
     5
 10
171.247135
 20
264.060514
 30
0.0
 11
155.819904
 21
266.122197
 31
0.0
  0
LINE
  5
BB
  8
0
  6
PHANTOM
 62
     5
 10
137.720029
 20
265.217204
 30
0.0
 11
155.819904
 21
266.122197
 31
0.0
  0
LINE
  5
BC
  8
0
  6
PHANTOM
 62
     5
 10
135.819904
 20
263.219699
 30
0.0
 11
135.819904
 21
251.454965
 31
0.0
  0
ARC
  5
BD
  8
0
  6
PHANTOM
 62
     5
 10
137.819904
 20
263.219699
 30
0.0
 40
2.0
 50
92.862405
 51
180.0
  0
LINE
  5
BE
  8
0
  6
PHANTOM
 62
     5
 10
155.819904
 20
243.745942
 30
0.0
 11
155.819904
 21
181.122197
 31
0.0
  0
ARC
  5
BF
  8
0
  6
PHANTOM
 62
     5
 10
160.819904
 20
243.745942
 30
0.0
 40
5.0
 50
97.611862
 51
180.0
  0
LINE
  5
C0
  8
0
  6
PHANTOM
 62
     5
 10
171.247135
 20
250.18388
 30
0.0
 11
154.819904
 21
247.988558
 31
0.0
  0
LINE
  5
C1
  8
0
  6
PHANTOM
 62
     5
 10
173.520589
 20
466.085618
 30
0.0
 11
173.520589
 21
466.256729
 31
0.0
  0
ARC
  5
C2
  8
0
  6
PHANTOM
 62
     5
 10
170.320589
 20
463.456729
 30
0.0
 40
5.3
 50
31.890792
 51
148.109208
  0
LINE
  5
C3
  8
0
  6
PHANTOM
 62
     5
 10
165.820589
 20
466.256729
 30
0.0
 11
174.820589
 21
466.256729
 31
0.0
  0
LINE
  5
C4
  8
0
  6
PHANTOM
 62
     5
 10
173.520589
 20
460.363005
 30
0.0
 11
173.520589
 21
459.751189
 31
0.0
  0
LINE
  5
C5
  8
0
  6
PHANTOM
 62
     5
 10
173.520589
 20
431.251189
 30
0.0
 11
173.520589
 21
430.639372
 31
0.0
  0
LINE
  5
C6
  8
0
  6
PHANTOM
 62
     5
 10
167.120589
 20
459.751189
 30
0.0
 11
167.120589
 21
460.130233
 31
0.0
  0
LINE
  5
C7
  8
0
  6
PHANTOM
 62
     5
 10
167.120589
 20
430.872144
 30
0.0
 11
167.120589
 21
431.251189
 31
0.0
  0
LINE
  5
C8
  8
0
  6
PHANTOM
 62
     5
 10
173.520589
 20
424.916759
 30
0.0
 11
173.520589
 21
424.745648
 31
0.0
  0
ARC
  5
C9
  8
0
  6
PHANTOM
 62
     5
 10
170.320589
 20
427.545648
 30
0.0
 40
5.3
 50
211.890792
 51
328.109208
  0
LINE
  5
CA
  8
0
  6
PHANTOM
 62
     5
 10
165.820589
 20
424.745648
 30
0.0
 11
174.820589
 21
424.745648
 31
0.0
  0
LINE
  5
CB
  8
0
  6
PHANTOM
 62
     5
 10
171.043718
 20
424.745648
 30
0.0
 11
171.043718
 21
424.861718
 31
0.0
  0
LINE
  5
CC
  8
0
  6
PHANTOM
 62
     5
 10
173.694904
 20
459.251189
 30
0.0
 11
174.194904
 21
459.751189
 31
0.0
  0
LINE
  5
CD
  8
0
  6
PHANTOM
 62
     5
 10
166.444904
 20
459.751189
 30
0.0
 11
166.944904
 21
459.251189
 31
0.0
  0
LINE
  5
CE
  8
0
  6
PHANTOM
 62
     5
 10
166.944904
 20
431.751189
 30
0.0
 11
166.444904
 21
431.251189
 31
0.0
  0
LINE
  5
CF
  8
0
  6
PHANTOM
 62
     5
 10
174.194904
 20
431.251189
 30
0.0
 11
173.694904
 21
431.751189
 31
0.0
  0
LINE
  5
D0
  8
0
  6
PHANTOM
 62
     5
 10
173.694904
 20
431.751189
 30
0.0
 11
173.694904
 21
459.251189
 31
0.0
  0
LINE
  5
D1
  8
0
  6
PHANTOM
 62
     5
 10
166.944904
 20
431.751189
 30
0.0
 11
166.944904
 21
459.251189
 31
0.0
  0
LINE
  5
D2
  8
0
  6
PHANTOM
 62
     5
 10
177.819904
 20
459.751189
 30
0.0
 11
178.319904
 21
459.251189
 31
0.0
  0
LINE
  5
D3
  8
0
  6
PHANTOM
 62
     5
 10
178.319904
 20
431.751189
 30
0.0
 11
177.819904
 21
431.251189
 31
0.0
  0
ARC
  5
D4
  8
0
  6
PHANTOM
 62
     5
 10
170.319904
 20
257.122197
 30
0.0
 40
7.5
 50
256.572392
 51
103.427608
  0
LINE
  5
D5
  8
0
  6
PHANTOM
 62
     5
 10
177.819904
 20
431.251189
 30
0.0
 11
163.872708
 21
431.251189
 31
0.0
  0
LINE
  5
D6
  8
0
  6
PHANTOM
 62
     5
 10
178.319904
 20
459.251189
 30
0.0
 11
178.319904
 21
431.751189
 31
0.0
  0
LINE
  5
D7
  8
0
  6
PHANTOM
 62
     5
 10
163.872708
 20
459.751189
 30
0.0
 11
177.819904
 21
459.751189
 31
0.0
  0
ARC
  5
D8
  8
0
  6
PHANTOM
 62
     5
 10
175.819904
 20
426.468226
 30
0.0
 40
1.5
 50
271.27303
 51
0.0
  0
ARC
  5
D9
  8
0
  6
PHANTOM
 62
     5
 10
176.319904
 20
429.536898
 30
0.0
 40
1.0
 50
0.0
 51
87.917033
  0
ARC
  5
DA
  8
0
  6
PHANTOM
 62
     5
 10
164.572557
 20
431.965479
 30
0.0
 40
1.0
 50
180.0
 51
267.917033
  0
ARC
  5
DB
  8
0
  6
PHANTOM
 62
     5
 10
137.319904
 20
434.375685
 30
0.0
 40
1.5
 50
180.0
 51
265.0
  0
LINE
  5
DC
  8
0
  6
PHANTOM
 62
     5
 10
137.189171
 20
432.881393
 30
0.0
 11
150.255683
 21
431.738222
 31
0.0
  0
LINE
  5
DD
  8
0
  6
PHANTOM
 62
     5
 10
154.819904
 20
426.757248
 30
0.0
 11
154.819904
 21
425.523658
 31
0.0
  0
LINE
  5
DE
  8
0
  6
PHANTOM
 62
     5
 10
177.319904
 20
429.536898
 30
0.0
 11
177.319904
 21
426.468226
 31
0.0
  0
LINE
  5
DF
  8
0
  6
PHANTOM
 62
     5
 10
175.853229
 20
424.968596
 30
0.0
 11
155.819904
 21
424.523658
 31
0.0
  0
LINE
  5
E0
  8
0
  6
PHANTOM
 62
     5
 10
164.536211
 20
430.96614
 30
0.0
 11
176.356251
 21
430.536237
 31
0.0
  0
LINE
  5
E1
  8
0
  6
PHANTOM
 62
     5
 10
163.572557
 20
431.965479
 30
0.0
 11
163.572557
 21
459.036898
 31
0.0
  0
LINE
  5
E2
  8
0
  6
PHANTOM
 62
     5
 10
155.819904
 20
424.523658
 30
0.0
 11
155.819904
 21
466.478473
 31
0.0
  0
LINE
  5
E3
  8
0
  6
PHANTOM
 62
     5
 10
135.819904
 20
457.876692
 30
0.0
 11
135.819904
 21
433.125685
 31
0.0
  0
ARC
  5
E4
  8
0
  6
PHANTOM
 62
     5
 10
149.819904
 20
426.757248
 30
0.0
 40
5.0
 50
0.0
 51
85.0
  0
ARC
  5
E5
  8
0
  6
PHANTOM
 62
     5
 10
155.819904
 20
425.523658
 30
0.0
 40
1.0
 50
180.0
 51
270.0
  0
ARC
  5
E6
  8
0
  6
PHANTOM
 62
     5
 10
175.819904
 20
464.534152
 30
0.0
 40
1.5
 50
0.0
 51
88.72697
  0
ARC
  5
E9
  8
0
  6
PHANTOM
 62
     5
 10
137.319904
 20
456.626692
 30
0.0
 40
1.5
 50
95.0
 51
180.0
  0
LINE
  5
EA
  8
0
  6
PHANTOM
 62
     5
 10
137.189171
 20
458.120984
 30
0.0
 11
150.255683
 21
459.264156
 31
0.0
  0
LINE
  5
EB
  8
0
  6
PHANTOM
 62
     5
 10
154.819904
 20
464.245129
 30
0.0
 11
154.819904
 21
465.478226
 31
0.0
  0
ARC
  5
ED
  8
0
  6
PHANTOM
 62
     5
 10
149.819904
 20
464.245129
 30
0.0
 40
5.0
 50
275.0
 51
0.0
  0
LINE
  5
EE
  8
0
  6
PHANTOM
 62
     5
 10
164.536211
 20
460.036237
 30
0.0
 11
176.356251
 21
460.46614
 31
0.0
  0
LINE
  5
EF
  8
0
  6
PHANTOM
 62
     5
 10
175.853229
 20
466.033781
 30
0.0
 11
155.842096
 21
466.47798
 31
0.0
  0
LINE
  5
F0
  8
0
  6
CENTER
 62
     2
 10
174.243033
 20
417.7887
 30
0.0
 11
174.243033
 21
472.696814
 31
0.0
  0
LINE
  5
F1
  8
0
  6
PHANTOM
 62
     5
 10
177.319904
 20
461.465479
 30
0.0
 11
177.319904
 21
464.534152
 31
0.0
  0
ARC
  5
F2
  8
0
  6
PHANTOM
 62
     5
 10
112.15161
 20
438.001189
 30
0.0
 40
2.0
 50
180.0
 51
270.0
  0
ARC
  5
F3
  8
0
  6
PHANTOM
 62
     5
 10
119.937531
 20
438.001189
 30
0.0
 40
2.0
 50
270.0
 51
0.0
  0
LINE
  5
F4
  8
0
  6
PHANTOM
 62
     5
 10
110.15161
 20
438.001189
 30
0.0
 11
110.15161
 21
453.001189
 31
0.0
  0
LINE
  5
F5
  8
0
  6
PHANTOM
 62
     5
 10
119.937531
 20
436.001189
 30
0.0
 11
112.15161
 21
436.001189
 31
0.0
  0
LINE
  5
F6
  8
0
  6
PHANTOM
 62
     5
 10
121.937531
 20
453.001189
 30
0.0
 11
121.937531
 21
438.001189
 31
0.0
  0
LINE
  5
F7
  8
0
  6
PHANTOM
 62
     5
 10
122.819904
 20
464.489033
 30
0.0
 11
122.819904
 21
426.513344
 31
0.0
  0
ARC
  5
F8
  8
0
  6
PHANTOM
 62
     5
 10
137.319904
 20
433.125685
 30
0.0
 40
1.5
 50
180.0
 51
265.0
  0
ARC
  5
F9
  8
0
  6
PHANTOM
 62
     5
 10
151.319904
 20
427.885565
 30
0.0
 40
2.5
 50
0.0
 51
85.0
  0
ARC
  5
FA
  8
0
  6
PHANTOM
 62
     5
 10
151.819904
 20
426.001189
 30
0.0
 40
2.0
 50
270.0
 51
0.0
  0
ARC
  5
FB
  8
0
  6
PHANTOM
 62
     5
 10
89.819904
 20
426.001189
 30
0.0
 40
2.0
 50
180.0
 51
270.0
  0
ARC
  5
FC
  8
0
  6
PHANTOM
 62
     5
 10
146.133005
 20
484.123369
 30
0.0
 40
4.5
 50
10.304846
 51
95.52754
  0
ARC
  5
FD
  8
0
  6
PHANTOM
 62
     5
 10
92.819904
 20
412.540676
 30
0.0
 40
5.0
 50
180.0
 51
264.47246
  0
LINE
  5
FE
  8
0
  6
CENTER
 62
     2
 10
97.819904
 20
425.001189
 30
0.0
 11
97.819904
 21
408.001189
 31
0.0
  0
LINE
  5
FF
  8
0
  6
CENTER
 62
     2
 10
89.319904
 20
416.501189
 30
0.0
 11
106.319904
 21
416.501189
 31
0.0
  0
LINE
  5
100
  8
0
  6
CENTER
 62
     2
 10
139.819904
 20
421.501189
 30
0.0
 11
139.819904
 21
404.501189
 31
0.0
  0
LINE
  5
101
  8
0
  6
CENTER
 62
     2
 10
131.319904
 20
413.001189
 30
0.0
 11
148.319904
 21
413.001189
 31
0.0
  0
LINE
  5
102
  8
0
  6
PHANTOM
 62
     5
 10
87.819904
 20
478.461701
 30
0.0
 11
87.819904
 21
412.540676
 31
0.0
  0
LINE
  5
103
  8
0
  6
PHANTOM
 62
     5
 10
92.338283
 20
407.563926
 30
0.0
 11
145.699546
 21
402.399933
 31
0.0
  0
LINE
  5
104
  8
0
  6
PHANTOM
 62
     5
 10
153.819904
 20
424.001189
 30
0.0
 11
150.56042
 21
406.074023
 31
0.0
  0
LINE
  5
105
  8
0
  6
PHANTOM
 62
     5
 10
89.819904
 20
424.001189
 30
0.0
 11
151.819904
 21
424.001189
 31
0.0
  0
LINE
  5
106
  8
0
  6
PHANTOM
 62
     5
 10
137.189171
 20
431.631393
 30
0.0
 11
151.537794
 21
430.376051
 31
0.0
  0
LINE
  5
107
  8
0
  6
PHANTOM
 62
     5
 10
153.819904
 20
427.885565
 30
0.0
 11
153.819904
 21
424.001189
 31
0.0
  0
CIRCLE
  5
108
  8
0
  6
PHANTOM
 62
     5
 10
97.819904
 20
416.501189
 30
0.0
 40
6.5
  0
CIRCLE
  5
109
  8
0
  6
PHANTOM
 62
     5
 10
139.819904
 20
413.001189
 30
0.0
 40
6.5
  0
CIRCLE
  5
10A
  8
0
  6
PHANTOM
 62
     5
 10
97.819904
 20
416.501189
 30
0.0
 40
3.5
  0
CIRCLE
  5
10B
  8
0
  6
PHANTOM
 62
     5
 10
139.819904
 20
413.001189
 30
0.0
 40
3.5
  0
ARC
  5
10C
  8
0
  6
PHANTOM
 62
     5
 10
112.15161
 20
453.001189
 30
0.0
 40
2.0
 50
90.0
 51
180.0
  0
ARC
  5
10D
  8
0
  6
PHANTOM
 62
     5
 10
119.937531
 20
453.001189
 30
0.0
 40
2.0
 50
0.0
 51
90.0
  0
LINE
  5
10E
  8
0
  6
PHANTOM
 62
     5
 10
119.937531
 20
455.001189
 30
0.0
 11
112.15161
 21
455.001189
 31
0.0
  0
ARC
  5
10F
  8
0
  6
PHANTOM
 62
     5
 10
137.319904
 20
457.876692
 30
0.0
 40
1.5
 50
95.0
 51
180.0
  0
ARC
  5
110
  8
0
  6
PHANTOM
 62
     5
 10
151.319904
 20
463.116812
 30
0.0
 40
2.5
 50
275.0
 51
0.0
  0
ARC
  5
111
  8
0
  6
PHANTOM
 62
     5
 10
151.819904
 20
465.001189
 30
0.0
 40
2.0
 50
360.0
 51
90.0
  0
ARC
  5
112
  8
0
  6
PHANTOM
 62
     5
 10
89.819904
 20
465.001189
 30
0.0
 40
2.0
 50
90.0
 51
180.0
  0
ARC
  5
113
  8
0
  6
PHANTOM
 62
     5
 10
146.133005
 20
406.879008
 30
0.0
 40
4.5
 50
264.47246
 51
349.695154
  0
ARC
  5
114
  8
0
  6
PHANTOM
 62
     5
 10
92.819904
 20
478.461701
 30
0.0
 40
5.0
 50
95.52754
 51
180.0
  0
LINE
  5
115
  8
0
  6
CENTER
 62
     2
 10
97.819904
 20
466.001189
 30
0.0
 11
97.819904
 21
483.001189
 31
0.0
  0
LINE
  5
116
  8
0
  6
CENTER
 62
     2
 10
89.319904
 20
474.501189
 30
0.0
 11
106.319904
 21
474.501189
 31
0.0
  0
LINE
  5
117
  8
0
  6
CENTER
 62
     2
 10
139.819904
 20
469.501189
 30
0.0
 11
139.819904
 21
486.501189
 31
0.0
  0
LINE
  5
118
  8
0
  6
CENTER
 62
     2
 10
131.319904
 20
478.001189
 30
0.0
 11
148.319904
 21
478.001189
 31
0.0
  0
LINE
  5
119
  8
0
  6
PHANTOM
 62
     5
 10
92.338283
 20
483.438451
 30
0.0
 11
145.699546
 21
488.602444
 31
0.0
  0
LINE
  5
11A
  8
0
  6
PHANTOM
 62
     5
 10
153.819904
 20
467.001189
 30
0.0
 11
150.56042
 21
484.928354
 31
0.0
  0
LINE
  5
11B
  8
0
  6
PHANTOM
 62
     5
 10
89.819904
 20
467.001189
 30
0.0
 11
151.819904
 21
467.001189
 31
0.0
  0
LINE
  5
11C
  8
0
  6
PHANTOM
 62
     5
 10
137.189171
 20
459.370984
 30
0.0
 11
151.537794
 21
460.626326
 31
0.0
  0
LINE
  5
11D
  8
0
  6
PHANTOM
 62
     5
 10
153.819904
 20
463.116812
 30
0.0
 11
153.819904
 21
467.001189
 31
0.0
  0
CIRCLE
  5
11E
  8
0
  6
PHANTOM
 62
     5
 10
97.819904
 20
474.501189
 30
0.0
 40
6.5
  0
CIRCLE
  5
11F
  8
0
  6
PHANTOM
 62
     5
 10
139.819904
 20
478.001189
 30
0.0
 40
6.5
  0
CIRCLE
  5
120
  8
0
  6
PHANTOM
 62
     5
 10
97.819904
 20
474.501189
 30
0.0
 40
3.5
  0
CIRCLE
  5
121
  8
0
  6
PHANTOM
 62
     5
 10
139.819904
 20
478.001189
 30
0.0
 40
3.5
  0
LINE
  5
122
  8
0
  6
CENTER
 62
     2
 10
139.854702
 20
149.253133
 30
0.0
 11
139.854702
 21
122.606651
 31
0.0
  0
LINE
  5
123
  8
0
  6
CENTER
 62
     2
 10
97.854702
 20
149.253133
 30
0.0
 11
97.854702
 21
122.606651
 31
0.0
  0
ARC
  5
124
  8
0
  6
PHANTOM
 62
     5
 10
89.854702
 20
138.957296
 30
0.0
 40
2.0
 50
90.868051
 51
180.0
  0
ARC
  5
125
  8
0
  6
PHANTOM
 62
     5
 10
151.854702
 20
139.89669
 30
0.0
 40
2.0
 50
0.0
 51
90.868051
  0
ARC
  5
126
  8
0
  6
PHANTOM
 62
     5
 10
125.067571
 20
248.172377
 30
0.0
 40
3.0
 50
91.5
 51
162.378161
  0
LINE
  5
127
  8
0
  6
PHANTOM
 62
     5
 10
153.854702
 20
127.927223
 30
0.0
 11
153.854702
 21
251.927223
 31
0.0
  0
LINE
  5
128
  8
0
  6
PHANTOM
 62
     5
 10
87.854702
 20
127.927223
 30
0.0
 11
153.854702
 21
127.927223
 31
0.0
  0
LINE
  5
129
  8
0
  6
PHANTOM
 62
     5
 10
87.854702
 20
140.927223
 30
0.0
 11
87.854702
 21
127.927223
 31
0.0
  0
LINE
  5
12A
  8
0
  6
PHANTOM
 62
     5
 10
122.208345
 20
249.080577
 30
0.0
 11
87.854702
 21
140.927223
 31
0.0
  0
LINE
  5
12B
  8
0
  6
PHANTOM
 62
     5
 10
153.854702
 20
251.927223
 30
0.0
 11
124.98904
 21
251.171349
 31
0.0
  0
LINE
  5
12C
  8
0
  6
PHANTOM
 62
     5
 10
89.824402
 20
140.957067
 30
0.0
 11
151.824402
 21
141.896461
 31
0.0
  0
LINE
  5
12D
  8
0
  6
CONTINUOUS
 62
     4
 10
217.008977
 20
446.001189
 30
0.0
 11
217.208977
 21
446.601189
 31
0.0
  0
LINE
  5
12E
  8
0
  6
CONTINUOUS
 62
     4
 10
216.608977
 20
446.001189
 30
0.0
 11
217.008977
 21
446.001189
 31
0.0
  0
LINE
  5
12F
  8
0
  6
CONTINUOUS
 62
     4
 10
216.408977
 20
446.601189
 30
0.0
 11
216.608977
 21
446.001189
 31
0.0
  0
LINE
  5
130
  8
0
  6
CONTINUOUS
 62
     4
 10
211.308977
 20
446.601189
 30
0.0
 11
211.308977
 21
444.401189
 31
0.0
  0
LINE
  5
131
  8
0
  6
CONTINUOUS
 62
     4
 10
218.008977
 20
446.601189
 30
0.0
 11
218.008977
 21
444.401189
 31
0.0
  0
LINE
  5
132
  8
0
  6
CONTINUOUS
 62
     7
 10
219.708977
 20
446.601189
 30
0.0
 11
219.708977
 21
444.401189
 31
0.0
  0
LINE
  5
133
  8
0
  6
CONTINUOUS
 62
     7
 10
219.708977
 20
444.401189
 30
0.0
 11
209.708977
 21
444.401189
 31
0.0
  0
CIRCLE
  5
134
  8
0
  6
CONTINUOUS
 62
     4
 10
214.708977
 20
445.501189
 30
0.0
 40
8.0
  0
LINE
  5
135
  8
0
  6
CENTER
 62
     2
 10
263.208977
 20
460.945741
 30
0.0
 11
263.208977
 21
430.962469
 31
0.0
  0
LINE
  5
136
  8
0
  6
CONTINUOUS
 62
     7
 10
182.319904
 20
249.793282
 30
0.0
 11
166.731821
 21
248.876336
 31
0.0
  0
LINE
  5
137
  8
0
  6
CONTINUOUS
 62
     7
 10
165.319904
 20
247.378925
 30
0.0
 11
165.319904
 21
246.793282
 31
0.0
  0
ARC
  5
138
  8
0
  6
CONTINUOUS
 62
     7
 10
199.400859
 20
254.76125
 30
0.0
 40
35.0
 50
193.159122
 51
238.895625
  0
LINE
  5
139
  8
0
  6
CONTINUOUS
 62
     7
 10
181.319904
 20
224.793282
 30
0.0
 11
182.883528
 21
224.793282
 31
0.0
  0
ARC
  5
13A
  8
0
  6
CONTINUOUS
 62
     7
 10
166.708977
 20
435.088245
 30
0.0
 40
2.0
 50
180.0
 51
256.865978
  0
LINE
  5
13B
  8
0
  6
CONTINUOUS
 62
     7
 10
182.319904
 20
249.793282
 30
0.0
 11
183.319904
 21
249.793282
 31
0.0
  0
LINE
  5
13C
  8
0
  6
CONTINUOUS
 62
     7
 10
179.708977
 20
430.001189
 30
0.0
 11
182.708977
 21
430.053554
 31
0.0
  0
LINE
  5
13D
  8
0
  6
CONTINUOUS
 62
     7
 10
164.708977
 20
435.088245
 30
0.0
 11
164.708977
 21
455.914132
 31
0.0
  0
LINE
  5
13E
  8
0
  6
CONTINUOUS
 62
     7
 10
179.708977
 20
430.001189
 30
0.0
 11
166.254518
 21
433.140562
 31
0.0
  0
ARC
  5
13F
  8
0
  6
CONTINUOUS
 62
     7
 10
166.708977
 20
455.914132
 30
0.0
 40
2.0
 50
103.134022
 51
180.0
  0
ARC
  5
140
  8
0
  6
CONTINUOUS
 62
     7
 10
166.819904
 20
247.378925
 30
0.0
 40
1.5
 50
93.366461
 51
180.0
  0
LINE
  5
142
  8
0
  6
CONTINUOUS
 62
     7
 10
179.708977
 20
461.001189
 30
0.0
 11
166.254518
 21
457.861815
 31
0.0
  0
ARC
  5
143
  8
0
  6
CONTINUOUS
 62
     4
 10
382.382954
 20
226.866595
 30
0.0
 40
30.0
 50
87.364736
 51
134.416967
  0
LINE
  5
144
  8
0
  6
CONTINUOUS
 62
     4
 10
460.708977
 20
253.293282
 30
0.0
 11
383.762288
 21
256.834869
 31
0.0
  0
LINE
  5
145
  8
0
  6
CONTINUOUS
 62
     4
 10
471.66659
 20
249.680645
 30
0.0
 11
460.708977
 21
253.293282
 31
0.0
  0
LINE
  5
146
  8
0
  6
CENTER
 62
     2
 10
251.708977
 20
266.293282
 30
0.0
 11
251.708977
 21
252.293282
 31
0.0
  0
LINE
  5
147
  8
0
  6
CENTER
 62
     2
 10
244.708977
 20
259.293282
 30
0.0
 11
258.708977
 21
259.293282
 31
0.0
  0
LINE
  5
148
  8
0
  6
CONTINUOUS
 62
     7
 10
356.50062
 20
245.293282
 30
0.0
 11
358.708977
 21
245.293282
 31
0.0
  0
ARC
  5
149
  8
0
  6
CONTINUOUS
 62
     7
 10
378.575499
 20
220.312899
 30
0.0
 40
31.917053
 50
90.273604
 51
128.494701
  0
LINE
  5
14A
  8
0
  6
CONTINUOUS
 62
     7
 10
460.708977
 20
250.793282
 30
0.0
 11
378.423087
 21
252.229588
 31
0.0
  0
LINE
  5
14B
  8
0
  6
CONTINUOUS
 62
     7
 10
460.708977
 20
250.793282
 30
0.0
 11
471.10659
 21
247.760645
 31
0.0
  0
LINE
  5
14C
  8
0
  6
CONTINUOUS
 62
     7
 10
475.367336
 20
252.610001
 30
0.0
 11
473.455445
 21
248.786218
 31
0.0
  0
LINE
  5
14D
  8
0
  6
CONTINUOUS
 62
     7
 10
460.708977
 20
263.293282
 30
0.0
 11
474.025695
 21
256.634923
 31
0.0
  0
LINE
  5
14E
  8
0
  6
CONTINUOUS
 62
     7
 10
358.708977
 20
270.793282
 30
0.0
 11
460.708977
 21
263.293282
 31
0.0
  0
LINE
  5
14F
  8
0
  6
CONTINUOUS
 62
     7
 10
229.726507
 20
270.793282
 30
0.0
 11
358.708977
 21
270.793282
 31
0.0
  0
LINE
  5
150
  8
0
  6
CONTINUOUS
 62
     7
 10
227.726583
 20
268.775829
 30
0.0
 11
227.735158
 21
267.793282
 31
0.0
  0
ARC
  5
151
  8
0
  6
CONTINUOUS
 62
     7
 10
471.66659
 20
249.680645
 30
0.0
 40
2.0
 50
253.739795
 51
333.434949
  0
ARC
  5
152
  8
0
  6
CONTINUOUS
 62
     7
 10
472.684055
 20
253.951642
 30
0.0
 40
3.0
 50
333.434949
 51
63.434949
  0
ARC
  5
153
  8
0
  6
CONTINUOUS
 62
     7
 10
229.726507
 20
268.793282
 30
0.0
 40
2.0
 50
90.0
 51
180.5
  0
LINE
  5
154
  8
0
  6
CENTER
 62
     2
 10
233.708977
 20
232.793282
 30
0.0
 11
233.708977
 21
208.945201
 31
0.0
  0
LINE
  5
155
  8
0
  6
CENTER
 62
     2
 10
319.708977
 20
232.793282
 30
0.0
 11
319.708977
 21
208.945201
 31
0.0
  0
LINE
  5
156
  8
0
  6
CENTER
 62
     2
 10
342.208977
 20
239.793282
 30
0.0
 11
342.208977
 21
225.793282
 31
0.0
  0
LINE
  5
157
  8
0
  6
CENTER
 62
     2
 10
335.208977
 20
232.793282
 30
0.0
 11
349.208977
 21
232.793282
 31
0.0
  0
LINE
  5
158
  8
0
  6
CENTER
 62
     2
 10
272.708977
 20
256.793282
 30
0.0
 11
272.708977
 21
246.793282
 31
0.0
  0
LINE
  5
159
  8
0
  6
CENTER
 62
     2
 10
267.708977
 20
251.793282
 30
0.0
 11
277.708977
 21
251.793282
 31
0.0
  0
CIRCLE
  5
15A
  8
0
  6
CONTINUOUS
 62
     7
 10
342.208977
 20
232.793282
 30
0.0
 40
4.75
  0
CIRCLE
  5
15B
  8
0
  6
CONTINUOUS
 62
     7
 10
272.708977
 20
251.793282
 30
0.0
 40
3.0
  0
CIRCLE
  5
15C
  8
0
  6
CONTINUOUS
 62
     7
 10
251.708977
 20
259.293282
 30
0.0
 40
4.5
  0
LINE
  5
15D
  8
0
  6
CONTINUOUS
 62
     4
 10
251.66836
 20
223.293282
 30
0.0
 11
251.66836
 21
227.793282
 31
0.0
  0
LINE
  5
15E
  8
0
  6
CONTINUOUS
 62
     4
 10
304.578665
 20
227.793282
 30
0.0
 11
304.578665
 21
223.293282
 31
0.0
  0
LINE
  5
15F
  8
0
  6
CONTINUOUS
 62
     7
 10
304.578665
 20
223.293282
 30
0.0
 11
312.565126
 21
227.793282
 31
0.0
  0
LINE
  5
160
  8
0
  6
CONTINUOUS
 62
     7
 10
251.66836
 20
223.293282
 30
0.0
 11
304.578665
 21
223.293282
 31
0.0
  0
LINE
  5
161
  8
0
  6
CONTINUOUS
 62
     7
 10
243.681899
 20
227.793282
 30
0.0
 11
251.66836
 21
223.293282
 31
0.0
  0
LINE
  5
162
  8
0
  6
CONTINUOUS
 62
     7
 10
226.708977
 20
267.793282
 30
0.0
 11
226.708977
 21
269.793282
 31
0.0
  0
LINE
  5
163
  8
0
  6
CONTINUOUS
 62
     7
 10
225.708977
 20
270.793282
 30
0.0
 11
201.412807
 21
270.793282
 31
0.0
  0
LINE
  5
164
  8
0
  6
CONTINUOUS
 62
     7
 10
200.471465
 20
270.130739
 30
0.0
 11
198.290997
 21
264.048275
 31
0.0
  0
ARC
  5
165
  8
0
  6
CONTINUOUS
 62
     4
 10
229.708977
 20
225.793282
 30
0.0
 40
2.0
 50
90.0
 51
180.0
  0
ARC
  5
166
  8
0
  6
CONTINUOUS
 62
     4
 10
328.739877
 20
225.793282
 30
0.0
 40
2.0
 50
0.0
 51
90.0
  0
ARC
  5
167
  8
0
  6
CONTINUOUS
 62
     7
 10
334.208977
 20
225.793282
 30
0.0
 40
2.0
 50
0.0
 51
90.0
  0
ARC
  5
168
  8
0
  6
CONTINUOUS
 62
     7
 10
207.208977
 20
225.793282
 30
0.0
 40
2.0
 50
90.0
 51
180.0
  0
LINE
  5
16A
  8
0
  6
CONTINUOUS
 62
     7
 10
183.451668
 20
257.34203
 30
0.0
 11
182.708977
 21
214.793282
 31
0.0
  0
LINE
  5
16B
  8
0
  6
CONTINUOUS
 62
     7
 10
182.708977
 20
214.793282
 30
0.0
 11
359.708977
 21
214.793282
 31
0.0
  0
LINE
  5
16D
  8
0
  6
CONTINUOUS
 62
     7
 10
358.495055
 20
242.596673
 30
0.0
 11
359.708977
 21
214.793282
 31
0.0
  0
LINE
  5
16E
  8
0
  6
CONTINUOUS
 62
     7
 10
356.27561
 20
245.363259
 30
0.0
 11
272.708977
 21
267.793282
 31
0.0
  0
LINE
  5
16F
  8
0
  6
CONTINUOUS
 62
     7
 10
272.708977
 20
267.793282
 30
0.0
 11
226.708977
 21
267.793282
 31
0.0
  0
LINE
  5
170
  8
0
  6
CONTINUOUS
 62
     7
 10
226.708977
 20
267.793282
 30
0.0
 11
185.905121
 21
260.239552
 31
0.0
  0
ARC
  5
171
  8
0
  6
CONTINUOUS
 62
     7
 10
195.466973
 20
265.060643
 30
0.0
 40
3.0
 50
280.48803
 51
340.278037
  0
ARC
  5
172
  8
0
  6
CONTINUOUS
 62
     7
 10
186.451211
 20
257.289673
 30
0.0
 40
3.0
 50
100.48803
 51
179.0
  0
LINE
  5
173
  8
0
  6
CONTINUOUS
 62
     7
 10
336.208977
 20
214.793282
 30
0.0
 11
336.208977
 21
225.793282
 31
0.0
  0
LINE
  5
174
  8
0
  6
CONTINUOUS
 62
     4
 10
330.739877
 20
214.793282
 30
0.0
 11
330.739877
 21
225.793282
 31
0.0
  0
ARC
  5
175
  8
0
  6
CONTINUOUS
 62
     7
 10
474.708977
 20
439.426371
 30
0.0
 40
2.0
 50
272.18395
 51
0.0
  0
LINE
  5
176
  8
0
  6
CONTINUOUS
 62
     7
 10
334.208977
 20
227.793282
 30
0.0
 11
207.208977
 21
227.793282
 31
0.0
  0
ARC
  5
177
  8
0
  6
CONTINUOUS
 62
     7
 10
229.708977
 20
435.001189
 30
0.0
 40
2.0
 50
180.0
 51
270.0
  0
ARC
  5
178
  8
0
  6
CONTINUOUS
 62
     7
 10
229.708977
 20
456.001189
 30
0.0
 40
2.0
 50
90.0
 51
180.0
  0
ARC
  5
179
  8
0
  6
CONTINUOUS
 62
     7
 10
474.708977
 20
451.576006
 30
0.0
 40
2.0
 50
0.0
 51
87.81605
  0
LINE
  5
17A
  8
0
  6
CONTINUOUS
 62
     7
 10
227.708977
 20
435.001189
 30
0.0
 11
227.708977
 21
456.001189
 31
0.0
  0
LINE
  5
17B
  8
0
  6
CONTINUOUS
 62
     7
 10
229.708977
 20
458.001189
 30
0.0
 11
358.708977
 21
458.001189
 31
0.0
  0
LINE
  5
17C
  8
0
  6
CONTINUOUS
 62
     7
 10
358.708977
 20
458.001189
 30
0.0
 11
474.785193
 21
453.574553
 31
0.0
  0
LINE
  5
17D
  8
0
  6
CONTINUOUS
 62
     7
 10
476.708977
 20
451.576006
 30
0.0
 11
476.708977
 21
439.426371
 31
0.0
  0
LINE
  5
17E
  8
0
  6
CONTINUOUS
 62
     7
 10
474.785193
 20
437.427824
 30
0.0
 11
358.708977
 21
433.001189
 31
0.0
  0
LINE
  5
17F
  8
0
  6
CONTINUOUS
 62
     7
 10
358.708977
 20
433.001189
 30
0.0
 11
229.708977
 21
433.001189
 31
0.0
  0
LINE
  5
180
  8
0
  6
CONTINUOUS
 62
     4
 10
460.708977
 20
452.150107
 30
0.0
 11
460.708977
 21
438.987032
 31
0.0
  0
LINE
  5
181
  8
0
  6
CONTINUOUS
 62
     4
 10
358.708977
 20
455.482531
 30
0.0
 11
358.708977
 21
435.654608
 31
0.0
  0
LINE
  5
182
  8
0
  6
CENTER
 62
     2
 10
251.708977
 20
471.936969
 30
0.0
 11
251.708977
 21
455.870283
 31
0.0
  0
LINE
  5
183
  8
0
  6
CENTER
 62
     2
 10
251.708977
 20
434.280673
 30
0.0
 11
251.708977
 21
420.222323
 31
0.0
  0
ARC
  5
184
  8
0
  6
CONTINUOUS
 62
     7
 10
214.708977
 20
445.501189
 30
0.0
 40
8.1
 50
0.0
 51
0.0
  0
ARC
  5
185
  8
0
  6
CONTINUOUS
 62
     4
 10
214.708977
 20
445.501189
 30
0.0
 40
2.5
 50
26.103881
 51
153.896119
  0
ARC
  5
186
  8
0
  6
CONTINUOUS
 62
     4
 10
214.708977
 20
445.501189
 30
0.0
 40
2.5
 50
206.103881
 51
333.896119
  0
LINE
  5
187
  8
0
  6
CONTINUOUS
 62
     4
 10
215.008977
 20
445.301189
 30
0.0
 11
215.008977
 21
444.401189
 31
0.0
  0
LINE
  5
188
  8
0
  6
CONTINUOUS
 62
     4
 10
215.808977
 20
445.301189
 30
0.0
 11
215.008977
 21
445.301189
 31
0.0
  0
LINE
  5
189
  8
0
  6
CONTINUOUS
 62
     4
 10
215.808977
 20
444.401189
 30
0.0
 11
215.808977
 21
445.301189
 31
0.0
  0
LINE
  5
18A
  8
0
  6
CONTINUOUS
 62
     4
 10
213.808977
 20
445.801189
 30
0.0
 11
211.308977
 21
445.801189
 31
0.0
  0
LINE
  5
18B
  8
0
  6
CONTINUOUS
 62
     4
 10
213.808977
 20
446.601189
 30
0.0
 11
213.808977
 21
445.801189
 31
0.0
  0
LINE
  5
18D
  8
0
  6
CENTER
 62
     2
 10
214.708977
 20
430.411013
 30
0.0
 11
214.708977
 21
460.598415
 31
0.0
  0
ARC
  5
18E
  8
0
  6
CONTINUOUS
 62
     7
 10
357.708977
 20
429.676044
 30
0.0
 40
2.0
 50
271.0
 51
0.0
  0
ARC
  5
18F
  8
0
  6
CONTINUOUS
 62
     7
 10
203.426135
 20
416.362046
 30
0.0
 40
5.0
 50
49.980583
 51
91.0
  0
ARC
  5
190
  8
0
  6
CONTINUOUS
 62
     7
 10
340.001325
 20
421.983851
 30
0.0
 40
5.0
 50
93.760105
 51
163.311198
  0
ARC
  5
191
  8
0
  6
CONTINUOUS
 62
     7
 10
327.712582
 20
412.333422
 30
0.0
 40
4.0
 50
273.333851
 51
343.913074
  0
ARC
  5
192
  8
0
  6
CONTINUOUS
 62
     7
 10
230.079523
 20
409.651145
 30
0.0
 40
7.0
 50
229.980583
 51
273.333851
  0
ARC
  5
193
  8
0
  6
CONTINUOUS
 62
     7
 10
185.708977
 20
424.054011
 30
0.0
 40
3.0
 50
180.0
 51
271.0
  0
ARC
  5
194
  8
0
  6
CONTINUOUS
 62
     7
 10
349.208977
 20
434.501189
 30
0.0
 40
2.0
 50
270.0
 51
311.409622
  0
LINE
  5
195
  8
0
  6
CONTINUOUS
 62
     4
 10
272.708977
 20
424.386927
 30
0.0
 11
272.708977
 21
431.763077
 31
0.0
  0
LINE
  5
196
  8
0
  6
CENTER
 62
     2
 10
224.708977
 20
414.001189
 30
0.0
 11
242.708977
 21
414.001189
 31
0.0
  0
LINE
  5
197
  8
0
  6
CENTER
 62
     2
 10
233.708977
 20
423.001189
 30
0.0
 11
233.708977
 21
405.001189
 31
0.0
  0
ARC
  5
198
  8
0
  6
CONTINUOUS
 62
     7
 10
357.708977
 20
461.326333
 30
0.0
 40
2.0
 50
0.0
 51
89.0
  0
ARC
  5
199
  8
0
  6
CONTINUOUS
 62
     7
 10
203.426135
 20
474.640331
 30
0.0
 40
5.0
 50
269.0
 51
310.019417
  0
ARC
  5
19A
  8
0
  6
CONTINUOUS
 62
     7
 10
340.001325
 20
469.018526
 30
0.0
 40
5.0
 50
196.688802
 51
266.239895
  0
ARC
  5
19B
  8
0
  6
CONTINUOUS
 62
     7
 10
327.712582
 20
478.668955
 30
0.0
 40
4.0
 50
16.086926
 51
86.666149
  0
ARC
  5
19C
  8
0
  6
CONTINUOUS
 62
     7
 10
230.079523
 20
481.351232
 30
0.0
 40
7.0
 50
86.666149
 51
130.019417
  0
ARC
  5
19D
  8
0
  6
CONTINUOUS
 62
     7
 10
185.708977
 20
466.948366
 30
0.0
 40
3.0
 50
89.0
 51
180.0
  0
ARC
  5
19E
  8
0
  6
CONTINUOUS
 62
     7
 10
349.208977
 20
456.501189
 30
0.0
 40
2.0
 50
48.590378
 51
90.0
  0
LINE
  5
19F
  8
0
  6
CONTINUOUS
 62
     4
 10
272.708977
 20
466.61545
 30
0.0
 11
272.708977
 21
459.2393
 31
0.0
  0
ARC
  5
1A0
  8
0
  6
CONTINUOUS
 62
     7
 10
199.208977
 20
457.001189
 30
0.0
 40
1.5
 50
90.0
 51
180.0
  0
LINE
  5
1A1
  8
0
  6
CONTINUOUS
 62
     4
 10
200.708977
 20
456.501189
 30
0.0
 11
198.5573
 21
457.93564
 31
0.0
  0
LINE
  5
1A3
  8
0
  6
CONTINUOUS
 62
     7
 10
201.708977
 20
456.501189
 30
0.0
 11
226.708977
 21
456.501189
 31
0.0
  0
ARC
  5
1A4
  8
0
  6
CONTINUOUS
 62
     7
 10
228.708977
 20
456.501189
 30
0.0
 40
2.0
 50
90.0
 51
180.0
  0
CIRCLE
  5
1A5
  8
0
  6
CONTINUOUS
 62
     7
 10
233.708977
 20
414.001189
 30
0.0
 40
6.5
  0
CIRCLE
  5
1A6
  8
0
  6
CONTINUOUS
 62
     7
 10
233.708977
 20
414.001189
 30
0.0
 40
3.4
  0
LINE
  5
1A7
  8
0
  6
CONTINUOUS
 62
     7
 10
205.208977
 20
225.793282
 30
0.0
 11
205.208977
 21
214.793282
 31
0.0
  0
LINE
  5
1A8
  8
0
  6
CONTINUOUS
 62
     7
 10
199.208977
 20
458.501189
 30
0.0
 11
349.208977
 21
458.501189
 31
0.0
  0
LINE
  5
1A9
  8
0
  6
CENTER
 62
     2
 10
310.708977
 20
418.501189
 30
0.0
 11
328.708977
 21
418.501189
 31
0.0
  0
LINE
  5
1AA
  8
0
  6
CENTER
 62
     2
 10
319.708977
 20
427.501189
 30
0.0
 11
319.708977
 21
409.501189
 31
0.0
  0
LINE
  5
1AB
  8
0
  6
CONTINUOUS
 62
     7
 10
359.708977
 20
461.326333
 30
0.0
 11
359.708977
 21
457.963053
 31
0.0
  0
LINE
  5
1AC
  8
0
  6
CONTINUOUS
 62
     7
 10
347.708977
 20
463.501189
 30
0.0
 11
357.743882
 21
463.326029
 31
0.0
  0
CIRCLE
  5
1AD
  8
0
  6
CONTINUOUS
 62
     7
 10
319.708977
 20
418.501189
 30
0.0
 40
6.5
  0
LINE
  5
1AE
  8
0
  6
CONTINUOUS
 62
     7
 10
243.681899
 20
487.570727
 30
0.0
 11
251.261283
 21
480.117343
 31
0.0
  0
LINE
  5
1AF
  8
0
  6
CONTINUOUS
 62
     7
 10
251.261283
 20
480.117343
 30
0.0
 11
304.171588
 21
477.035189
 31
0.0
  0
LINE
  5
1B0
  8
0
  6
CONTINUOUS
 62
     7
 10
304.171588
 20
477.035189
 30
0.0
 11
312.565126
 21
483.558112
 31
0.0
  0
LINE
  5
1B1
  8
0
  6
CONTINUOUS
 62
     4
 10
304.578665
 20
484.023343
 30
0.0
 11
304.171588
 21
477.035189
 31
0.0
  0
LINE
  5
1B2
  8
0
  6
CONTINUOUS
 62
     4
 10
251.66836
 20
487.105496
 30
0.0
 11
251.261283
 21
480.117343
 31
0.0
  0
CIRCLE
  5
1B3
  8
0
  6
CONTINUOUS
 62
     7
 10
319.708977
 20
418.501189
 30
0.0
 40
3.4
  0
LINE
  5
1B4
  8
0
  6
CONTINUOUS
 62
     4
 10
226.708977
 20
468.195914
 30
0.0
 11
226.708977
 21
459.603443
 31
0.0
  0
LINE
  5
1B5
  8
0
  6
CONTINUOUS
 62
     7
 10
331.555952
 20
479.777336
 30
0.0
 11
335.211932
 21
467.58266
 31
0.0
  0
LINE
  5
1B6
  8
0
  6
CONTINUOUS
 62
     7
 10
272.708977
 20
468.430233
 30
0.0
 11
185.761334
 21
469.947909
 31
0.0
  0
LINE
  5
1B7
  8
0
  6
CONTINUOUS
 62
     7
 10
272.708977
 20
468.430233
 30
0.0
 11
347.708977
 21
463.501189
 31
0.0
  0
LINE
  5
1B8
  8
0
  6
CONTINUOUS
 62
     7
 10
182.708977
 20
466.948366
 30
0.0
 11
182.708977
 21
424.054011
 31
0.0
  0
LINE
  5
1B9
  8
0
  6
CONTINUOUS
 62
     7
 10
206.641371
 20
420.191179
 30
0.0
 11
225.578193
 21
404.290359
 31
0.0
  0
LINE
  5
1BA
  8
0
  6
CONTINUOUS
 62
     7
 10
230.4866
 20
402.662992
 30
0.0
 11
327.945197
 21
408.340192
 31
0.0
  0
LINE
  5
1BB
  8
0
  6
CONTINUOUS
 62
     7
 10
272.708977
 20
422.572144
 30
0.0
 11
347.708977
 21
427.501189
 31
0.0
  0
LINE
  5
1BC
  8
0
  6
CONTINUOUS
 62
     7
 10
230.4866
 20
488.339385
 30
0.0
 11
327.945197
 21
482.662185
 31
0.0
  0
LINE
  5
1BD
  8
0
  6
CONTINUOUS
 62
     7
 10
272.708977
 20
422.572144
 30
0.0
 11
185.761334
 21
421.054468
 31
0.0
  0
LINE
  5
1BE
  8
0
  6
CONTINUOUS
 62
     7
 10
331.555952
 20
411.225041
 30
0.0
 11
335.211932
 21
423.419717
 31
0.0
  0
LINE
  5
1BF
  8
0
  6
CONTINUOUS
 62
     4
 10
226.708977
 20
422.806463
 30
0.0
 11
226.708977
 21
431.398934
 31
0.0
  0
LINE
  5
1C0
  8
0
  6
CONTINUOUS
 62
     4
 10
251.66836
 20
403.896881
 30
0.0
 11
251.261283
 21
410.885034
 31
0.0
  0
LINE
  5
1C1
  8
0
  6
CONTINUOUS
 62
     7
 10
206.641371
 20
470.811198
 30
0.0
 11
225.578193
 21
486.712018
 31
0.0
  0
LINE
  5
1C2
  8
0
  6
CENTER
 62
     2
 10
76.754926
 20
445.501189
 30
0.0
 11
486.375843
 21
445.501189
 31
0.0
  0
CIRCLE
  5
1C3
  8
0
  6
CONTINUOUS
 62
     7
 10
319.708977
 20
472.501189
 30
0.0
 40
3.4
  0
CIRCLE
  5
1C4
  8
0
  6
CONTINUOUS
 62
     7
 10
319.708977
 20
472.501189
 30
0.0
 40
6.5
  0
LINE
  5
1C5
  8
0
  6
CENTER
 62
     2
 10
319.708977
 20
463.501189
 30
0.0
 11
319.708977
 21
481.501189
 31
0.0
  0
LINE
  5
1C6
  8
0
  6
CENTER
 62
     2
 10
310.708977
 20
472.501189
 30
0.0
 11
328.708977
 21
472.501189
 31
0.0
  0
CIRCLE
  5
1C7
  8
0
  6
CONTINUOUS
 62
     7
 10
233.708977
 20
477.001189
 30
0.0
 40
3.4
  0
CIRCLE
  5
1C8
  8
0
  6
CONTINUOUS
 62
     7
 10
233.708977
 20
477.001189
 30
0.0
 40
6.5
  0
LINE
  5
1C9
  8
0
  6
CENTER
 62
     2
 10
233.708977
 20
468.001189
 30
0.0
 11
233.708977
 21
486.001189
 31
0.0
  0
LINE
  5
1CA
  8
0
  6
CENTER
 62
     2
 10
224.708977
 20
477.001189
 30
0.0
 11
242.708977
 21
477.001189
 31
0.0
  0
LINE
  5
1CB
  8
0
  6
CONTINUOUS
 62
     7
 10
197.708977
 20
457.001189
 30
0.0
 11
197.708977
 21
434.001189
 31
0.0
  0
LINE
  5
1CC
  8
0
  6
CONTINUOUS
 62
     7
 10
226.708977
 20
434.501189
 30
0.0
 11
226.708977
 21
456.501189
 31
0.0
  0
LINE
  5
1CD
  8
0
  6
CONTINUOUS
 62
     4
 10
304.578665
 20
406.979034
 30
0.0
 11
304.171588
 21
413.967188
 31
0.0
  0
LINE
  5
1CE
  8
0
  6
CONTINUOUS
 62
     7
 10
347.708977
 20
427.501189
 30
0.0
 11
357.743882
 21
427.676348
 31
0.0
  0
LINE
  5
1CF
  8
0
  6
CONTINUOUS
 62
     7
 10
359.708977
 20
429.676044
 30
0.0
 11
359.708977
 21
433.039324
 31
0.0
  0
LINE
  5
1D0
  8
0
  6
CONTINUOUS
 62
     7
 10
199.208977
 20
432.501189
 30
0.0
 11
349.208977
 21
432.501189
 31
0.0
  0
LINE
  5
1D1
  8
0
  6
CONTINUOUS
 62
     4
 10
227.708977
 20
214.793282
 30
0.0
 11
227.708977
 21
225.793282
 31
0.0
  0
LINE
  5
1D2
  8
0
  6
PHANTOM
 62
     5
 10
268.208977
 20
205.793282
 30
0.0
 11
268.208977
 21
177.257446
 31
0.0
  0
LINE
  5
1D3
  8
0
  6
CONTINUOUS
 62
     7
 10
250.708977
 20
214.793282
 30
0.0
 11
250.708977
 21
206.793282
 31
0.0
  0
LINE
  5
1D4
  8
0
  6
CONTINUOUS
 62
     7
 10
251.708977
 20
205.793282
 30
0.0
 11
274.708977
 21
205.793282
 31
0.0
  0
LINE
  5
1D5
  8
0
  6
CONTINUOUS
 62
     7
 10
275.708977
 20
206.793282
 30
0.0
 11
275.708977
 21
214.793282
 31
0.0
  0
LINE
  5
1D6
  8
0
  6
CENTER
 62
     2
 10
263.208977
 20
218.64422
 30
0.0
 11
263.208977
 21
178.578877
 31
0.0
  0
LINE
  5
1D9
  8
0
  6
HIDDEN
 62
     4
 10
252.608977
 20
214.793282
 30
0.0
 11
252.608977
 21
205.793282
 31
0.0
  0
LINE
  5
1DA
  8
0
  6
HIDDEN
 62
     4
 10
272.308977
 20
214.793282
 30
0.0
 11
272.308977
 21
205.793282
 31
0.0
  0
LINE
  5
1DB
  8
0
  6
PHANTOM
 62
     5
 10
258.208977
 20
205.793282
 30
0.0
 11
258.208977
 21
182.404492
 31
0.0
  0
LINE
  5
1DC
  8
0
  6
HIDDEN
 62
     4
 10
258.208977
 20
440.501189
 30
0.0
 11
258.208977
 21
450.501189
 31
0.0
  0
LINE
  5
1DD
  8
0
  6
HIDDEN
 62
     4
 10
268.208977
 20
440.501189
 30
0.0
 11
258.208977
 21
440.501189
 31
0.0
  0
LINE
  5
1DE
  8
0
  6
HIDDEN
 62
     4
 10
268.208977
 20
450.501189
 30
0.0
 11
268.208977
 21
440.501189
 31
0.0
  0
LINE
  5
1DF
  8
0
  6
HIDDEN
 62
     4
 10
258.208977
 20
450.501189
 30
0.0
 11
268.208977
 21
450.501189
 31
0.0
  0
ARC
  5
1E0
  8
0
  6
CONTINUOUS
 62
     7
 10
228.708977
 20
434.501189
 30
0.0
 40
2.0
 50
180.0
 51
270.0
  0
LINE
  5
1E1
  8
0
  6
PHANTOM
 62
     5
 10
225.208977
 20
154.793282
 30
0.0
 11
301.208977
 21
154.793282
 31
0.0
  0
LINE
  5
1E2
  8
0
  6
PHANTOM
 62
     5
 10
301.208977
 20
154.793282
 30
0.0
 11
301.208977
 21
146.793282
 31
0.0
  0
LINE
  5
1E3
  8
0
  6
PHANTOM
 62
     5
 10
299.208977
 20
144.793282
 30
0.0
 11
227.208977
 21
144.793282
 31
0.0
  0
LINE
  5
1E4
  8
0
  6
PHANTOM
 62
     5
 10
290.530441
 20
142.161363
 30
0.0
 11
284.448462
 21
125.451262
 31
0.0
  0
LINE
  5
1E5
  8
0
  6
PHANTOM
 62
     5
 10
225.208977
 20
154.793282
 30
0.0
 11
225.208977
 21
146.793282
 31
0.0
  0
LINE
  5
1E6
  8
0
  6
PHANTOM
 62
     5
 10
235.887513
 20
142.161363
 30
0.0
 11
241.969492
 21
125.451262
 31
0.0
  0
ARC
  5
1E7
  8
0
  6
PHANTOM
 62
     5
 10
299.208977
 20
146.793282
 30
0.0
 40
2.0
 50
270.0
 51
0.0
  0
ARC
  5
1E8
  8
0
  6
PHANTOM
 62
     5
 10
227.208977
 20
146.793282
 30
0.0
 40
2.0
 50
180.0
 51
270.0
  0
ARC
  5
1E9
  8
0
  6
PHANTOM
 62
     5
 10
294.289212
 20
140.793282
 30
0.0
 40
4.0
 50
90.0
 51
160.0
  0
ARC
  5
1EA
  8
0
  6
PHANTOM
 62
     5
 10
232.128742
 20
140.793282
 30
0.0
 40
4.0
 50
20.0
 51
90.0
  0
ARC
  5
1EE
  8
0
  6
PHANTOM
 62
     5
 10
271.180369
 20
142.793282
 30
0.0
 40
2.0
 50
90.0
 51
175.479871
  0
ARC
  5
1EF
  8
0
  6
PHANTOM
 62
     5
 10
255.237585
 20
142.793282
 30
0.0
 40
2.0
 50
4.520095
 51
90.0
  0
LINE
  5
1F0
  8
0
  6
PHANTOM
 62
     5
 10
259.958977
 20
154.793282
 30
0.0
 11
259.958977
 21
148.123282
 31
0.0
  0
LINE
  5
1F1
  8
0
  6
PHANTOM
 62
     5
 10
266.458977
 20
148.123282
 30
0.0
 11
266.458977
 21
154.793282
 31
0.0
  0
LINE
  5
1F2
  8
0
  6
PHANTOM
 62
     5
 10
259.958977
 20
148.123282
 30
0.0
 11
257.158977
 21
145.323282
 31
0.0
  0
LINE
  5
1F3
  8
0
  6
PHANTOM
 62
     5
 10
266.458977
 20
148.123282
 30
0.0
 11
259.958977
 21
148.123282
 31
0.0
  0
LINE
  5
1F4
  8
0
  6
PHANTOM
 62
     5
 10
269.258977
 20
145.323282
 30
0.0
 11
266.458977
 21
148.123282
 31
0.0
  0
LINE
  5
1F5
  8
0
  6
PHANTOM
 62
     5
 10
257.140469
 20
144.793282
 30
0.0
 11
257.158977
 21
145.323282
 31
0.0
  0
LINE
  5
1F6
  8
0
  6
PHANTOM
 62
     5
 10
269.258977
 20
145.323282
 30
0.0
 11
257.158977
 21
145.323282
 31
0.0
  0
LINE
  5
1F7
  8
0
  6
PHANTOM
 62
     5
 10
269.277444
 20
144.794455
 30
0.0
 11
269.258977
 21
145.323282
 31
0.0
  0
POINT
  5
1F8
  8
0
  6
PHANTOM
 62
     5
 10
257.141098
 20
144.793282
 30
0.0
  0
ARC
  5
1F9
  8
0
  6
PHANTOM
 62
     5
 10
393.208977
 20
112.793282
 30
0.0
 40
10.0
 50
0.0
 51
90.0
  0
ARC
  5
1FA
  8
0
  6
PHANTOM
 62
     5
 10
244.208977
 20
123.793282
 30
0.0
 40
1.0
 50
90.0
 51
180.0
  0
ARC
  5
1FB
  8
0
  6
PHANTOM
 62
     5
 10
282.208977
 20
123.793282
 30
0.0
 40
1.0
 50
0.0
 51
90.0
  0
ARC
  5
1FD
  8
0
  6
PHANTOM
 62
     5
 10
388.208977
 20
107.177231
 30
0.0
 40
15.0
 50
311.810315
 51
0.0
  0
LINE
  5
1FE
  8
0
  6
PHANTOM
 62
     5
 10
403.208977
 20
107.177231
 30
0.0
 11
403.208977
 21
112.793282
 31
0.0
  0
ARC
  5
1FF
  8
0
  6
PHANTOM
 62
     5
 10
378.208977
 20
118.357571
 30
0.0
 40
30.0
 50
277.060736
 51
311.810315
  0
LINE
  5
200
  8
0
  6
PHANTOM
 62
     5
 10
386.493248
 20
122.793282
 30
0.0
 11
393.208977
 21
122.793282
 31
0.0
  0
LINE
  5
201
  8
0
  6
PHANTOM
 62
     5
 10
242.909185
 20
124.793282
 30
0.0
 11
283.208977
 21
124.793282
 31
0.0
  0
ARC
  5
202
  8
0
  6
PHANTOM
 62
     5
 10
253.208977
 20
99.426886
 30
0.0
 40
10.0
 50
180.0
 51
262.114271
  0
ARC
  5
203
  8
0
  6
PHANTOM
 62
     5
 10
298.208977
 20
116.925632
 30
0.0
 40
15.0
 50
180.0
 51
271.357589
  0
LINE
  5
204
  8
0
  6
PHANTOM
 62
     5
 10
283.208977
 20
116.925632
 30
0.0
 11
283.208977
 21
123.793282
 31
0.0
  0
ARC
  5
206
  8
0
  6
PHANTOM
 62
     5
 10
287.038116
 20
588.293283
 30
0.0
 40
486.5
 50
271.357589
 51
278.21734
  0
LINE
  5
207
  8
0
  6
PHANTOM
 62
     5
 10
372.351113
 20
116.935418
 30
0.0
 11
367.856388
 21
112.440693
 31
0.0
  0
LINE
  5
208
  8
0
  6
PHANTOM
 62
     5
 10
243.208977
 20
99.426886
 30
0.0
 11
243.208977
 21
123.793282
 31
0.0
  0
ARC
  5
209
  8
0
  6
PHANTOM
 62
     5
 10
320.435915
 20
584.793282
 30
0.0
 40
500.0
 50
262.114271
 51
277.060736
  0
LINE
  5
20A
  8
0
  6
CONTINUOUS
 62
     7
 10
304.171588
 20
413.967188
 30
0.0
 11
312.565126
 21
407.444265
 31
0.0
  0
LINE
  5
20B
  8
0
  6
CONTINUOUS
 62
     7
 10
251.261283
 20
410.885034
 30
0.0
 11
304.171588
 21
413.967188
 31
0.0
  0
LINE
  5
20C
  8
0
  6
CONTINUOUS
 62
     7
 10
200.708977
 20
455.501189
 30
0.0
 11
200.708977
 21
435.501189
 31
0.0
  0
LINE
  5
20D
  8
0
  6
CONTINUOUS
 62
     7
 10
243.681899
 20
403.43165
 30
0.0
 11
251.261283
 21
410.885034
 31
0.0
  0
LINE
  5
268
  8
0
  6
PHANTOM
 62
     5
 10
258.208977
 20
178.166331
 30
0.0
 11
258.208977
 21
154.793282
 31
0.0
  0
LINE
  5
269
  8
0
  6
CENTER
 62
     2
 10
263.208977
 20
174.340716
 30
0.0
 11
263.208977
 21
72.647259
 31
0.0
  0
LINE
  5
26A
  8
0
  6
PHANTOM
 62
     5
 10
268.208977
 20
173.019285
 30
0.0
 11
268.208977
 21
154.793282
 31
0.0
  0
LINE
  5
26B
  8
0
  6
CENTER
 62
     2
 10
593.57621
 20
404.286208
 30
0.0
 11
607.57621
 21
404.286208
 31
0.0
  0
LINE
  5
26C
  8
0
  6
CENTER
 62
     2
 10
600.57621
 20
397.286208
 30
0.0
 11
600.57621
 21
411.286208
 31
0.0
  0
CIRCLE
  5
26D
  8
0
  6
CONTINUOUS
 62
     7
 10
600.57621
 20
404.286208
 30
0.0
 40
3.4
  0
LINE
  5
26E
  8
0
  6
CENTER
 62
     2
 10
679.57621
 20
399.786208
 30
0.0
 11
693.57621
 21
399.786208
 31
0.0
  0
LINE
  5
26F
  8
0
  6
CENTER
 62
     2
 10
686.57621
 20
392.786208
 30
0.0
 11
686.57621
 21
406.786208
 31
0.0
  0
CIRCLE
  5
270
  8
0
  6
CONTINUOUS
 62
     7
 10
686.57621
 20
399.786208
 30
0.0
 40
3.4
  0
LINE
  5
271
  8
0
  6
CENTER
 62
     2
 10
585.689244
 20
372.786208
 30
0.0
 11
697.71852
 21
372.786208
 31
0.0
  0
CIRCLE
  5
272
  8
0
  6
CONTINUOUS
 62
     7
 10
686.57621
 20
345.786208
 30
0.0
 40
3.4
  0
LINE
  5
273
  8
0
  6
CENTER
 62
     2
 10
686.57621
 20
352.786208
 30
0.0
 11
686.57621
 21
338.786208
 31
0.0
  0
LINE
  5
274
  8
0
  6
CENTER
 62
     2
 10
679.57621
 20
345.786208
 30
0.0
 11
693.57621
 21
345.786208
 31
0.0
  0
CIRCLE
  5
275
  8
0
  6
CONTINUOUS
 62
     7
 10
600.57621
 20
341.286208
 30
0.0
 40
3.4
  0
LINE
  5
276
  8
0
  6
CENTER
 62
     2
 10
600.57621
 20
348.286208
 30
0.0
 11
600.57621
 21
334.286208
 31
0.0
  0
LINE
  5
277
  8
0
  6
CENTER
 62
     2
 10
593.57621
 20
341.286208
 30
0.0
 11
607.57621
 21
341.286208
 31
0.0
  0
LINE
  5
278
  8
0
  6
CENTER
 62
     2
 10
630.07621
 20
392.786208
 30
0.0
 11
630.07621
 21
352.786208
 31
0.0
  0
CIRCLE
  5
279
  8
0
  6
CONTINUOUS
 62
     7
 10
630.07621
 20
372.786208
 30
0.0
 40
12.6
  0
ARC
  5
27B
  8
0
  6
CONTINUOUS
 62
     7
 10
355.49791
 20
242.465815
 30
0.0
 40
3.0
 50
2.5
 51
74.975431
  0
LINE
  5
27C
  8
0
  6
PHANTOM
 62
     5
 10
349.880201
 20
339.058337
 30
0.0
 11
330.638273
 21
367.835265
 31
0.0
  0
ARC
  5
27D
  8
0
  6
PHANTOM
 62
     5
 10
347.386344
 20
337.390799
 30
0.0
 40
3.0
 50
307.0
 51
33.76899
  0
LINE
  5
27E
  8
0
  6
HIDDEN
 62
     4
 10
258.208977
 20
205.793282
 30
0.0
 11
258.208977
 21
220.793282
 31
0.0
  0
LINE
  5
27F
  8
0
  6
HIDDEN
 62
     4
 10
258.208977
 20
220.793282
 30
0.0
 11
268.208977
 21
220.793282
 31
0.0
  0
LINE
  5
280
  8
0
  6
HIDDEN
 62
     4
 10
268.208977
 20
220.793282
 30
0.0
 11
268.208977
 21
205.793282
 31
0.0
  0
ARC
  5
281
  8
0
  6
CONTINUOUS
 62
     7
 10
199.208977
 20
434.001189
 30
0.0
 40
1.5
 50
180.0
 51
270.0
  0
TEXT
  5
282
  8
0
  6
CONTINUOUS
 62
     1
 10
350.0
 20
20.0
 30
0.0
 40
5.0
  1
FA-601F
 41
1.005405
 72
     5
 11
381.0
 21
20.0
 31
0.0
  0
ARC
  5
283
  8
0
  6
PHANTOM
 62
     5
 10
343.928926
 20
334.785448
 30
0.0
 40
3.0
 50
220.23101
 51
307.0
  0
LINE
  5
284
  8
0
  6
PHANTOM
 62
     5
 10
300.195009
 20
509.166497
 30
0.0
 11
341.638586
 21
558.154542
 31
0.0
  0
LINE
  5
285
  8
0
  6
PHANTOM
 62
     5
 10
345.734371
 20
558.612836
 30
0.0
 11
349.191789
 21
556.007484
 31
0.0
  0
LINE
  5
286
  8
0
  6
PHANTOM
 62
     5
 10
349.880201
 20
551.94404
 30
0.0
 11
316.839976
 21
502.53131
 31
0.0
  0
ARC
  5
287
  8
0
  6
PHANTOM
 62
     5
 10
343.928926
 20
556.216929
 30
0.0
 40
3.0
 50
53.0
 51
139.76899
  0
ARC
  5
288
  8
0
  6
PHANTOM
 62
     5
 10
347.386344
 20
553.611578
 30
0.0
 40
3.0
 50
326.23101
 51
53.0
  0
LINE
  5
289
  8
0
  6
CENTER
 62
     2
 10
307.259961
 20
387.043559
 30
0.0
 11
350.335333
 21
329.880609
 31
0.0
  0
LINE
  5
28A
  8
0
  6
CENTER
 62
     2
 10
307.891193
 20
504.796492
 30
0.0
 11
350.542139
 21
561.396209
 31
0.0
  0
LINE
  5
28B
  8
0
  6
CONTINUOUS
 62
     4
 10
200.708977
 20
434.501189
 30
0.0
 11
198.5573
 21
433.066737
 31
0.0
  0
ARC
  5
28C
  8
0
  6
CONTINUOUS
 62
     7
 10
201.708977
 20
435.501189
 30
0.0
 40
1.0
 50
180.0
 51
270.0
  0
LINE
  5
28D
  8
0
  6
CONTINUOUS
 62
     7
 10
201.708977
 20
434.501189
 30
0.0
 11
226.708977
 21
434.501189
 31
0.0
  0
ARC
  5
2AB
  8
0
  6
PHANTOM
 62
     5
 10
155.819904
 20
465.478226
 30
0.0
 40
1.0
 50
88.728381
 51
180.0
  0
ARC
  5
2AC
  8
0
  6
PHANTOM
 62
     5
 10
176.319904
 20
461.465479
 30
0.0
 40
1.0
 50
272.082967
 51
360.0
  0
LINE
  5
2AE
  8
0
  6
CONTINUOUS
 62
     7
 10
179.708977
 20
461.001189
 30
0.0
 11
182.708977
 21
460.948823
 31
0.0
  0
TEXT
  5
2BC
  8
0
  6
CONTINUOUS
 62
     1
 10
630.930046
 20
441.601151
 30
0.0
 40
3.2
  1
パネル穴明け寸法
  0
ARC
  5
2D4
  8
0
  6
PHANTOM
 62
     5
 10
353.714252
 20
126.582829
 30
0.0
 40
20.0
 50
278.21734
 51
315.0
  0
ARC
  5
2D5
  8
0
  6
PHANTOM
 62
     5
 10
386.493248
 20
102.793282
 30
0.0
 40
20.0
 50
90.0
 51
135.0
  0
ARC
  5
2D8
  8
0
  6
PHANTOM
 62
     5
 10
164.572557
 20
459.036898
 30
0.0
 40
1.0
 50
92.082967
 51
180.0
  0
POLYLINE
  5
2DC
  8
0
  6
PHANTOM
 62
     5
 66
     1
 10
0.0
 20
0.0
 30
0.0
 70
   128
  0
VERTEX
  5
74F
  8
0
  6
PHANTOM
 62
     5
 10
257.231364
 20
142.9509
 30
0.0
  0
VERTEX
  5
750
  8
0
  6
PHANTOM
 62
     5
 10
257.333144
 20
141.094403
 30
0.0
  0
VERTEX
  5
751
  8
0
  6
PHANTOM
 62
     5
 10
257.635019
 20
139.301127
 30
0.0
  0
VERTEX
  5
752
  8
0
  6
PHANTOM
 62
     5
 10
258.126709
 20
137.63214
 30
0.0
  0
VERTEX
  5
753
  8
0
  6
PHANTOM
 62
     5
 10
258.791468
 20
136.144277
 30
0.0
  0
VERTEX
  5
754
  8
0
  6
PHANTOM
 62
     5
 10
259.606661
 20
134.888205
 30
0.0
  0
VERTEX
  5
755
  8
0
  6
PHANTOM
 62
     5
 10
260.544527
 20
133.906699
 30
0.0
  0
VERTEX
  5
756
  8
0
  6
PHANTOM
 62
     5
 10
261.573127
 20
133.233182
 30
0.0
  0
VERTEX
  5
757
  8
0
  6
PHANTOM
 62
     5
 10
262.657433
 20
132.89059
 30
0.0
  0
VERTEX
  5
758
  8
0
  6
PHANTOM
 62
     5
 10
263.760523
 20
132.89059
 30
0.0
  0
VERTEX
  5
759
  8
0
  6
PHANTOM
 62
     5
 10
264.844829
 20
133.233182
 30
0.0
  0
VERTEX
  5
75A
  8
0
  6
PHANTOM
 62
     5
 10
265.873429
 20
133.906699
 30
0.0
  0
VERTEX
  5
75B
  8
0
  6
PHANTOM
 62
     5
 10
266.811294
 20
134.888206
 30
0.0
  0
VERTEX
  5
75C
  8
0
  6
PHANTOM
 62
     5
 10
267.626487
 20
136.144278
 30
0.0
  0
VERTEX
  5
75D
  8
0
  6
PHANTOM
 62
     5
 10
268.291247
 20
137.632141
 30
0.0
  0
VERTEX
  5
75E
  8
0
  6
PHANTOM
 62
     5
 10
268.782935
 20
139.301128
 30
0.0
  0
VERTEX
  5
75F
  8
0
  6
PHANTOM
 62
     5
 10
269.08481
 20
141.094404
 30
0.0
  0
VERTEX
  5
760
  8
0
  6
PHANTOM
 62
     5
 10
269.18659
 20
142.950901
 30
0.0
  0
SEQEND
  5
761
  8
0
  6
PHANTOM
 62
     5
  0
LINE
  5
2E3
  8
0
  6
CONTINUOUS
 62
     4
 10
254.459548
 20
179.071915
 30
0.0
 11
255.491571
 21
180.391394
 31
0.0
  0
ARC
  5
2E4
  8
0
  6
CONTINUOUS
 62
     4
 10
296.928273
 20
140.065362
 30
0.0
 40
57.820318
 50
133.597508
 51
135.778261
  0
ARC
  5
2E5
  8
0
  6
CONTINUOUS
 62
     4
 10
261.049381
 20
174.086975
 30
0.0
 40
8.809081
 50
109.415957
 51
116.956708
  0
ARC
  5
2E6
  8
0
  6
CONTINUOUS
 62
     4
 10
258.009929
 20
178.426897
 30
0.0
 40
3.969743
 50
72.395115
 51
88.396219
  0
ARC
  5
2E7
  8
0
  6
CONTINUOUS
 62
     4
 10
256.770579
 20
177.202257
 30
0.0
 40
5.571202
 50
50.403943
 51
64.025756
  0
ARC
  5
2E8
  8
0
  6
CONTINUOUS
 62
     4
 10
246.014314
 20
165.130274
 30
0.0
 40
21.737201
 50
42.601462
 51
48.838097
  0
ARC
  5
2E9
  8
0
  6
CONTINUOUS
 62
     4
 10
225.502668
 20
141.072362
 30
0.0
 40
53.257571
 50
43.256029
 51
46.719299
  0
ARC
  5
2EA
  8
0
  6
CONTINUOUS
 62
     4
 10
274.393474
 20
197.96953
 30
0.0
 40
22.766554
 50
243.654587
 51
249.825294
  0
ARC
  5
2EB
  8
0
  6
CONTINUOUS
 62
     4
 10
265.522328
 20
181.473896
 30
0.0
 40
4.979533
 50
281.812164
 51
310.310693
  0
ARC
  5
2EC
  8
0
  6
CONTINUOUS
 62
     4
 10
259.962913
 20
187.798645
 30
0.0
 40
13.399832
 50
310.94197
 51
324.806368
  0
ARC
  5
2ED
  8
0
  6
CONTINUOUS
 62
     4
 10
249.211607
 20
197.694295
 30
0.0
 40
27.953164
 50
320.928665
 51
324.585047
  0
LINE
  5
2EE
  8
0
  6
CONTINUOUS
 62
     4
 10
271.992781
 20
181.495608
 30
0.0
 11
271.992781
 21
181.495608
 31
0.0
  0
LINE
  5
2EF
  8
0
  6
CONTINUOUS
 62
     4
 10
271.992781
 20
181.495608
 30
0.0
 11
271.992781
 21
181.495608
 31
0.0
  0
LINE
  5
2F0
  8
0
  6
CONTINUOUS
 62
     4
 10
271.992781
 20
181.495608
 30
0.0
 11
271.992781
 21
181.495608
 31
0.0
  0
LINE
  5
2F1
  8
0
  6
CONTINUOUS
 62
     4
 10
271.992781
 20
181.495608
 30
0.0
 11
271.992781
 21
181.495608
 31
0.0
  0
LINE
  5
2F2
  8
0
  6
CONTINUOUS
 62
     4
 10
271.992781
 20
181.495608
 30
0.0
 11
271.992781
 21
181.495608
 31
0.0
  0
LINE
  5
2F3
  8
0
  6
CONTINUOUS
 62
     4
 10
271.992781
 20
181.495608
 30
0.0
 11
271.992781
 21
181.495608
 31
0.0
  0
LINE
  5
2F4
  8
0
  6
CONTINUOUS
 62
     4
 10
271.992781
 20
181.495608
 30
0.0
 11
271.992781
 21
181.495608
 31
0.0
  0
LINE
  5
2F5
  8
0
  6
CONTINUOUS
 62
     4
 10
271.992781
 20
181.495608
 30
0.0
 11
271.992781
 21
181.495608
 31
0.0
  0
LINE
  5
2F6
  8
0
  6
CONTINUOUS
 62
     4
 10
271.992781
 20
181.495608
 30
0.0
 11
271.992781
 21
181.495608
 31
0.0
  0
LINE
  5
2F7
  8
0
  6
CONTINUOUS
 62
     4
 10
271.992781
 20
181.495608
 30
0.0
 11
271.992781
 21
181.495608
 31
0.0
  0
LINE
  5
2F8
  8
0
  6
CONTINUOUS
 62
     4
 10
271.992781
 20
181.495608
 30
0.0
 11
271.992781
 21
181.495608
 31
0.0
  0
LINE
  5
2F9
  8
0
  6
CONTINUOUS
 62
     4
 10
271.992781
 20
181.495608
 30
0.0
 11
271.992781
 21
181.495608
 31
0.0
  0
LINE
  5
2FA
  8
0
  6
CONTINUOUS
 62
     4
 10
271.992781
 20
181.495608
 30
0.0
 11
271.992781
 21
181.495608
 31
0.0
  0
LINE
  5
2FB
  8
0
  6
CONTINUOUS
 62
     4
 10
271.992781
 20
181.495608
 30
0.0
 11
271.992781
 21
181.495608
 31
0.0
  0
LINE
  5
2FC
  8
0
  6
CONTINUOUS
 62
     4
 10
271.992781
 20
181.495608
 30
0.0
 11
271.992781
 21
181.495608
 31
0.0
  0
LINE
  5
2FD
  8
0
  6
CONTINUOUS
 62
     4
 10
271.992781
 20
181.495608
 30
0.0
 11
271.992781
 21
181.495608
 31
0.0
  0
LINE
  5
2FE
  8
0
  6
CONTINUOUS
 62
     4
 10
271.992781
 20
181.495608
 30
0.0
 11
271.992781
 21
181.495608
 31
0.0
  0
LINE
  5
2FF
  8
0
  6
CONTINUOUS
 62
     4
 10
271.992781
 20
181.495608
 30
0.0
 11
271.992781
 21
181.495608
 31
0.0
  0
LINE
  5
300
  8
0
  6
CONTINUOUS
 62
     4
 10
271.992781
 20
181.495608
 30
0.0
 11
271.992781
 21
181.495608
 31
0.0
  0
LINE
  5
301
  8
0
  6
CONTINUOUS
 62
     4
 10
271.992781
 20
181.495608
 30
0.0
 11
271.992781
 21
181.495608
 31
0.0
  0
LINE
  5
302
  8
0
  6
CONTINUOUS
 62
     4
 10
271.992781
 20
181.495608
 30
0.0
 11
271.992781
 21
181.495608
 31
0.0
  0
LINE
  5
303
  8
0
  6
CONTINUOUS
 62
     4
 10
271.992781
 20
181.495608
 30
0.0
 11
271.992781
 21
181.495608
 31
0.0
  0
LINE
  5
304
  8
0
  6
CONTINUOUS
 62
     4
 10
271.992781
 20
181.495608
 30
0.0
 11
271.992781
 21
181.495608
 31
0.0
  0
LINE
  5
305
  8
0
  6
CONTINUOUS
 62
     4
 10
271.992781
 20
181.495608
 30
0.0
 11
271.992781
 21
181.495608
 31
0.0
  0
LINE
  5
306
  8
0
  6
CONTINUOUS
 62
     4
 10
271.992781
 20
181.495608
 30
0.0
 11
271.992781
 21
181.495608
 31
0.0
  0
LINE
  5
307
  8
0
  6
CONTINUOUS
 62
     4
 10
271.992781
 20
181.495608
 30
0.0
 11
271.992781
 21
181.495608
 31
0.0
  0
LINE
  5
308
  8
0
  6
CONTINUOUS
 62
     4
 10
271.992781
 20
181.495608
 30
0.0
 11
271.992781
 21
181.495608
 31
0.0
  0
LINE
  5
309
  8
0
  6
CONTINUOUS
 62
     4
 10
271.992781
 20
181.495608
 30
0.0
 11
271.992781
 21
181.495608
 31
0.0
  0
LINE
  5
30A
  8
0
  6
CONTINUOUS
 62
     4
 10
271.992781
 20
181.495608
 30
0.0
 11
271.992781
 21
181.495608
 31
0.0
  0
LINE
  5
30B
  8
0
  6
CONTINUOUS
 62
     4
 10
271.992781
 20
181.495608
 30
0.0
 11
271.992781
 21
181.495608
 31
0.0
  0
LINE
  5
30C
  8
0
  6
CONTINUOUS
 62
     4
 10
271.992781
 20
181.495608
 30
0.0
 11
271.992781
 21
181.495608
 31
0.0
  0
LINE
  5
30D
  8
0
  6
CONTINUOUS
 62
     4
 10
254.459548
 20
174.833754
 30
0.0
 11
255.491571
 21
176.153233
 31
0.0
  0
ARC
  5
30E
  8
0
  6
CONTINUOUS
 62
     4
 10
296.928273
 20
135.827201
 30
0.0
 40
57.820318
 50
133.597508
 51
135.778261
  0
ARC
  5
30F
  8
0
  6
CONTINUOUS
 62
     4
 10
261.049381
 20
169.848814
 30
0.0
 40
8.809081
 50
109.415957
 51
116.956708
  0
ARC
  5
310
  8
0
  6
CONTINUOUS
 62
     4
 10
258.009929
 20
174.188736
 30
0.0
 40
3.969743
 50
72.395115
 51
88.396219
  0
ARC
  5
311
  8
0
  6
CONTINUOUS
 62
     4
 10
256.770579
 20
172.964095
 30
0.0
 40
5.571202
 50
50.403943
 51
64.025756
  0
ARC
  5
312
  8
0
  6
CONTINUOUS
 62
     4
 10
246.014314
 20
160.892113
 30
0.0
 40
21.737201
 50
42.601462
 51
48.838097
  0
ARC
  5
313
  8
0
  6
CONTINUOUS
 62
     4
 10
225.502668
 20
136.834201
 30
0.0
 40
53.257571
 50
43.256029
 51
46.719299
  0
ARC
  5
314
  8
0
  6
CONTINUOUS
 62
     4
 10
274.393474
 20
193.731369
 30
0.0
 40
22.766554
 50
243.654587
 51
249.825294
  0
ARC
  5
315
  8
0
  6
CONTINUOUS
 62
     4
 10
265.522328
 20
177.235734
 30
0.0
 40
4.979533
 50
281.812164
 51
310.310693
  0
ARC
  5
316
  8
0
  6
CONTINUOUS
 62
     4
 10
259.962913
 20
183.560484
 30
0.0
 40
13.399832
 50
310.94197
 51
324.806368
  0
ARC
  5
317
  8
0
  6
CONTINUOUS
 62
     4
 10
249.211607
 20
193.456134
 30
0.0
 40
27.953164
 50
320.928665
 51
324.585047
  0
LINE
  5
318
  8
0
  6
CONTINUOUS
 62
     4
 10
271.992781
 20
177.257446
 30
0.0
 11
271.992781
 21
177.257446
 31
0.0
  0
LINE
  5
319
  8
0
  6
CONTINUOUS
 62
     4
 10
271.992781
 20
177.257446
 30
0.0
 11
271.992781
 21
177.257446
 31
0.0
  0
LINE
  5
31A
  8
0
  6
CONTINUOUS
 62
     4
 10
271.992781
 20
177.257446
 30
0.0
 11
271.992781
 21
177.257446
 31
0.0
  0
LINE
  5
31B
  8
0
  6
CONTINUOUS
 62
     4
 10
271.992781
 20
177.257446
 30
0.0
 11
271.992781
 21
177.257446
 31
0.0
  0
LINE
  5
31C
  8
0
  6
CONTINUOUS
 62
     4
 10
271.992781
 20
177.257446
 30
0.0
 11
271.992781
 21
177.257446
 31
0.0
  0
LINE
  5
31D
  8
0
  6
CONTINUOUS
 62
     4
 10
271.992781
 20
177.257446
 30
0.0
 11
271.992781
 21
177.257446
 31
0.0
  0
LINE
  5
31E
  8
0
  6
CONTINUOUS
 62
     4
 10
271.992781
 20
177.257446
 30
0.0
 11
271.992781
 21
177.257446
 31
0.0
  0
LINE
  5
31F
  8
0
  6
CONTINUOUS
 62
     4
 10
271.992781
 20
177.257446
 30
0.0
 11
271.992781
 21
177.257446
 31
0.0
  0
LINE
  5
320
  8
0
  6
CONTINUOUS
 62
     4
 10
271.992781
 20
177.257446
 30
0.0
 11
271.992781
 21
177.257446
 31
0.0
  0
LINE
  5
321
  8
0
  6
CONTINUOUS
 62
     4
 10
271.992781
 20
177.257446
 30
0.0
 11
271.992781
 21
177.257446
 31
0.0
  0
LINE
  5
322
  8
0
  6
CONTINUOUS
 62
     4
 10
271.992781
 20
177.257446
 30
0.0
 11
271.992781
 21
177.257446
 31
0.0
  0
LINE
  5
323
  8
0
  6
CONTINUOUS
 62
     4
 10
271.992781
 20
177.257446
 30
0.0
 11
271.992781
 21
177.257446
 31
0.0
  0
LINE
  5
324
  8
0
  6
CONTINUOUS
 62
     4
 10
271.992781
 20
177.257446
 30
0.0
 11
271.992781
 21
177.257446
 31
0.0
  0
LINE
  5
325
  8
0
  6
CONTINUOUS
 62
     4
 10
271.992781
 20
177.257446
 30
0.0
 11
271.992781
 21
177.257446
 31
0.0
  0
LINE
  5
326
  8
0
  6
CONTINUOUS
 62
     4
 10
271.992781
 20
177.257446
 30
0.0
 11
271.992781
 21
177.257446
 31
0.0
  0
LINE
  5
327
  8
0
  6
CONTINUOUS
 62
     4
 10
271.992781
 20
177.257446
 30
0.0
 11
271.992781
 21
177.257446
 31
0.0
  0
LINE
  5
328
  8
0
  6
CONTINUOUS
 62
     4
 10
271.992781
 20
177.257446
 30
0.0
 11
271.992781
 21
177.257446
 31
0.0
  0
LINE
  5
329
  8
0
  6
CONTINUOUS
 62
     4
 10
271.992781
 20
177.257446
 30
0.0
 11
271.992781
 21
177.257446
 31
0.0
  0
LINE
  5
32A
  8
0
  6
CONTINUOUS
 62
     4
 10
271.992781
 20
177.257446
 30
0.0
 11
271.992781
 21
177.257446
 31
0.0
  0
LINE
  5
32B
  8
0
  6
CONTINUOUS
 62
     4
 10
271.992781
 20
177.257446
 30
0.0
 11
271.992781
 21
177.257446
 31
0.0
  0
LINE
  5
32C
  8
0
  6
CONTINUOUS
 62
     4
 10
271.992781
 20
177.257446
 30
0.0
 11
271.992781
 21
177.257446
 31
0.0
  0
LINE
  5
32D
  8
0
  6
CONTINUOUS
 62
     4
 10
271.992781
 20
177.257446
 30
0.0
 11
271.992781
 21
177.257446
 31
0.0
  0
LINE
  5
32E
  8
0
  6
CONTINUOUS
 62
     4
 10
271.992781
 20
177.257446
 30
0.0
 11
271.992781
 21
177.257446
 31
0.0
  0
LINE
  5
32F
  8
0
  6
CONTINUOUS
 62
     4
 10
271.992781
 20
177.257446
 30
0.0
 11
271.992781
 21
177.257446
 31
0.0
  0
LINE
  5
330
  8
0
  6
CONTINUOUS
 62
     4
 10
271.992781
 20
177.257446
 30
0.0
 11
271.992781
 21
177.257446
 31
0.0
  0
LINE
  5
331
  8
0
  6
CONTINUOUS
 62
     4
 10
271.992781
 20
177.257446
 30
0.0
 11
271.992781
 21
177.257446
 31
0.0
  0
LINE
  5
332
  8
0
  6
CONTINUOUS
 62
     4
 10
271.992781
 20
177.257446
 30
0.0
 11
271.992781
 21
177.257446
 31
0.0
  0
LINE
  5
333
  8
0
  6
CONTINUOUS
 62
     4
 10
271.992781
 20
177.257446
 30
0.0
 11
271.992781
 21
177.257446
 31
0.0
  0
LINE
  5
334
  8
0
  6
CONTINUOUS
 62
     4
 10
271.992781
 20
177.257446
 30
0.0
 11
271.992781
 21
177.257446
 31
0.0
  0
LINE
  5
335
  8
0
  6
CONTINUOUS
 62
     4
 10
271.992781
 20
177.257446
 30
0.0
 11
271.992781
 21
177.257446
 31
0.0
  0
LINE
  5
336
  8
0
  6
CONTINUOUS
 62
     4
 10
271.992781
 20
177.257446
 30
0.0
 11
271.992781
 21
177.257446
 31
0.0
  0
POLYLINE
  5
337
  8
0
  6
CONTINUOUS
 62
     7
 66
     1
 10
0.0
 20
0.0
 30
0.0
 70
   128
  0
VERTEX
  5
762
  8
0
  6
CONTINUOUS
 62
     7
 10
201.412807
 20
270.793282
 30
0.0
  0
VERTEX
  5
763
  8
0
  6
CONTINUOUS
 62
     7
 10
201.238476
 20
270.77797
 30
0.0
  0
VERTEX
  5
764
  8
0
  6
CONTINUOUS
 62
     7
 10
201.069484
 20
270.7325
 30
0.0
  0
VERTEX
  5
765
  8
0
  6
CONTINUOUS
 62
     7
 10
200.911007
 20
270.658266
 30
0.0
  0
VERTEX
  5
766
  8
0
  6
CONTINUOUS
 62
     7
 10
200.767897
 20
270.557542
 30
0.0
  0
VERTEX
  5
767
  8
0
  6
CONTINUOUS
 62
     7
 10
200.644539
 20
270.433411
 30
0.0
  0
VERTEX
  5
768
  8
0
  6
CONTINUOUS
 62
     7
 10
200.544709
 20
270.289676
 30
0.0
  0
VERTEX
  5
769
  8
0
  6
CONTINUOUS
 62
     7
 10
200.471465
 20
270.130739
 30
0.0
  0
SEQEND
  5
76A
  8
0
  6
CONTINUOUS
 62
     7
  0
POLYLINE
  5
338
  8
0
  6
CONTINUOUS
 62
     7
 66
     1
 10
0.0
 20
0.0
 30
0.0
 70
   128
  0
VERTEX
  5
76B
  8
0
  6
CONTINUOUS
 62
     7
 10
226.708977
 20
269.793282
 30
0.0
  0
VERTEX
  5
76C
  8
0
  6
CONTINUOUS
 62
     7
 10
226.693785
 20
269.966931
 30
0.0
  0
VERTEX
  5
76D
  8
0
  6
CONTINUOUS
 62
     7
 10
226.64867
 20
270.135303
 30
0.0
  0
VERTEX
  5
76E
  8
0
  6
CONTINUOUS
 62
     7
 10
226.575002
 20
270.293282
 30
0.0
  0
VERTEX
  5
76F
  8
0
  6
CONTINUOUS
 62
     7
 10
226.475021
 20
270.43607
 30
0.0
  0
VERTEX
  5
770
  8
0
  6
CONTINUOUS
 62
     7
 10
226.351765
 20
270.559327
 30
0.0
  0
VERTEX
  5
771
  8
0
  6
CONTINUOUS
 62
     7
 10
226.208977
 20
270.659308
 30
0.0
  0
VERTEX
  5
772
  8
0
  6
CONTINUOUS
 62
     7
 10
226.050997
 20
270.732975
 30
0.0
  0
VERTEX
  5
773
  8
0
  6
CONTINUOUS
 62
     7
 10
225.882625
 20
270.77809
 30
0.0
  0
VERTEX
  5
774
  8
0
  6
CONTINUOUS
 62
     7
 10
225.708977
 20
270.793282
 30
0.0
  0
SEQEND
  5
775
  8
0
  6
CONTINUOUS
 62
     7
  0
POLYLINE
  5
339
  8
0
  6
PHANTOM
 62
     5
 66
     1
 10
0.0
 20
0.0
 30
0.0
 70
   128
  0
VERTEX
  5
776
  8
0
  6
PHANTOM
 62
     5
 10
241.969492
 20
125.451262
 30
0.0
  0
VERTEX
  5
777
  8
0
  6
PHANTOM
 62
     5
 10
242.043159
 20
125.293282
 30
0.0
  0
VERTEX
  5
778
  8
0
  6
PHANTOM
 62
     5
 10
242.14314
 20
125.150495
 30
0.0
  0
VERTEX
  5
779
  8
0
  6
PHANTOM
 62
     5
 10
242.266397
 20
125.027238
 30
0.0
  0
VERTEX
  5
77A
  8
0
  6
PHANTOM
 62
     5
 10
242.409185
 20
124.927257
 30
0.0
  0
VERTEX
  5
77B
  8
0
  6
PHANTOM
 62
     5
 10
242.567164
 20
124.85359
 30
0.0
  0
VERTEX
  5
77C
  8
0
  6
PHANTOM
 62
     5
 10
242.735536
 20
124.808475
 30
0.0
  0
VERTEX
  5
77D
  8
0
  6
PHANTOM
 62
     5
 10
242.909185
 20
124.793282
 30
0.0
  0
SEQEND
  5
77E
  8
0
  6
PHANTOM
 62
     5
  0
POLYLINE
  5
33A
  8
0
  6
PHANTOM
 62
     5
 66
     1
 10
0.0
 20
0.0
 30
0.0
 70
   128
  0
VERTEX
  5
77F
  8
0
  6
PHANTOM
 62
     5
 10
283.508769
 20
124.793282
 30
0.0
  0
VERTEX
  5
780
  8
0
  6
PHANTOM
 62
     5
 10
283.682418
 20
124.808475
 30
0.0
  0
VERTEX
  5
781
  8
0
  6
PHANTOM
 62
     5
 10
283.85079
 20
124.85359
 30
0.0
  0
VERTEX
  5
782
  8
0
  6
PHANTOM
 62
     5
 10
284.008769
 20
124.927257
 30
0.0
  0
VERTEX
  5
783
  8
0
  6
PHANTOM
 62
     5
 10
284.151557
 20
125.027238
 30
0.0
  0
VERTEX
  5
784
  8
0
  6
PHANTOM
 62
     5
 10
284.274814
 20
125.150495
 30
0.0
  0
VERTEX
  5
785
  8
0
  6
PHANTOM
 62
     5
 10
284.374795
 20
125.293282
 30
0.0
  0
VERTEX
  5
786
  8
0
  6
PHANTOM
 62
     5
 10
284.448462
 20
125.451262
 30
0.0
  0
SEQEND
  5
787
  8
0
  6
PHANTOM
 62
     5
  0
POLYLINE
  5
33B
  8
0
  6
CONTINUOUS
 62
     7
 66
     1
 10
0.0
 20
0.0
 30
0.0
 70
   128
  0
VERTEX
  5
788
  8
0
  6
CONTINUOUS
 62
     7
 10
250.708977
 20
206.793282
 30
0.0
  0
VERTEX
  5
789
  8
0
  6
CONTINUOUS
 62
     7
 10
250.724169
 20
206.619634
 30
0.0
  0
VERTEX
  5
78A
  8
0
  6
CONTINUOUS
 62
     7
 10
250.769284
 20
206.451262
 30
0.0
  0
VERTEX
  5
78B
  8
0
  6
CONTINUOUS
 62
     7
 10
250.842952
 20
206.293282
 30
0.0
  0
VERTEX
  5
78C
  8
0
  6
CONTINUOUS
 62
     7
 10
250.942933
 20
206.150495
 30
0.0
  0
VERTEX
  5
78D
  8
0
  6
CONTINUOUS
 62
     7
 10
251.066189
 20
206.027238
 30
0.0
  0
VERTEX
  5
78E
  8
0
  6
CONTINUOUS
 62
     7
 10
251.208977
 20
205.927257
 30
0.0
  0
VERTEX
  5
78F
  8
0
  6
CONTINUOUS
 62
     7
 10
251.366957
 20
205.85359
 30
0.0
  0
VERTEX
  5
790
  8
0
  6
CONTINUOUS
 62
     7
 10
251.535329
 20
205.808475
 30
0.0
  0
VERTEX
  5
791
  8
0
  6
CONTINUOUS
 62
     7
 10
251.708977
 20
205.793282
 30
0.0
  0
SEQEND
  5
792
  8
0
  6
CONTINUOUS
 62
     7
  0
POLYLINE
  5
33C
  8
0
  6
CONTINUOUS
 62
     7
 66
     1
 10
0.0
 20
0.0
 30
0.0
 70
   128
  0
VERTEX
  5
793
  8
0
  6
CONTINUOUS
 62
     7
 10
274.708977
 20
205.793282
 30
0.0
  0
VERTEX
  5
794
  8
0
  6
CONTINUOUS
 62
     7
 10
274.904067
 20
205.812497
 30
0.0
  0
VERTEX
  5
795
  8
0
  6
CONTINUOUS
 62
     7
 10
275.09166
 20
205.869403
 30
0.0
  0
VERTEX
  5
796
  8
0
  6
CONTINUOUS
 62
     7
 10
275.264547
 20
205.961813
 30
0.0
  0
VERTEX
  5
797
  8
0
  6
CONTINUOUS
 62
     7
 10
275.416084
 20
206.086176
 30
0.0
  0
VERTEX
  5
798
  8
0
  6
CONTINUOUS
 62
     7
 10
275.540447
 20
206.237712
 30
0.0
  0
VERTEX
  5
799
  8
0
  6
CONTINUOUS
 62
     7
 10
275.632856
 20
206.410599
 30
0.0
  0
VERTEX
  5
79A
  8
0
  6
CONTINUOUS
 62
     7
 10
275.689762
 20
206.598192
 30
0.0
  0
VERTEX
  5
79B
  8
0
  6
CONTINUOUS
 62
     7
 10
275.708977
 20
206.793282
 30
0.0
  0
SEQEND
  5
79C
  8
0
  6
CONTINUOUS
 62
     7
  0
POLYLINE
  5
33D
  8
0
  6
CONTINUOUS
 62
     7
 66
     1
 10
0.0
 20
0.0
 30
0.0
 70
   128
  0
VERTEX
  5
79D
  8
0
  6
CONTINUOUS
 62
     7
 10
201.708977
 20
456.501189
 30
0.0
  0
VERTEX
  5
79E
  8
0
  6
CONTINUOUS
 62
     7
 10
201.513887
 20
456.481974
 30
0.0
  0
VERTEX
  5
79F
  8
0
  6
CONTINUOUS
 62
     7
 10
201.326294
 20
456.425068
 30
0.0
  0
VERTEX
  5
7A0
  8
0
  6
CONTINUOUS
 62
     7
 10
201.153407
 20
456.332658
 30
0.0
  0
VERTEX
  5
7A1
  8
0
  6
CONTINUOUS
 62
     7
 10
201.00187
 20
456.208295
 30
0.0
  0
VERTEX
  5
7A2
  8
0
  6
CONTINUOUS
 62
     7
 10
200.877507
 20
456.056759
 30
0.0
  0
VERTEX
  5
7A3
  8
0
  6
CONTINUOUS
 62
     7
 10
200.785097
 20
455.883872
 30
0.0
  0
VERTEX
  5
7A4
  8
0
  6
CONTINUOUS
 62
     7
 10
200.728192
 20
455.696279
 30
0.0
  0
VERTEX
  5
7A5
  8
0
  6
CONTINUOUS
 62
     7
 10
200.708977
 20
455.501189
 30
0.0
  0
SEQEND
  5
7A6
  8
0
  6
CONTINUOUS
 62
     7
  0
LINE
  5
33F
  8
0
  6
CONTINUOUS
 62
     2
 10
192.208977
 20
451.351189
 30
0.0
 11
191.458977
 21
451.351189
 31
0.0
  0
LINE
  5
340
  8
0
  6
CONTINUOUS
 62
     2
 10
192.208977
 20
452.251189
 30
0.0
 11
190.258977
 21
452.251189
 31
0.0
  0
LINE
  5
341
  8
0
  6
CONTINUOUS
 62
     2
 10
189.868977
 20
451.351189
 30
0.0
 11
189.208977
 21
451.351189
 31
0.0
  0
LINE
  5
342
  8
0
  6
CONTINUOUS
 62
     2
 10
189.868977
 20
449.551189
 30
0.0
 11
189.868977
 21
451.351189
 31
0.0
  0
LINE
  5
343
  8
0
  6
CONTINUOUS
 62
     2
 10
190.333977
 20
449.551189
 30
0.0
 11
189.868977
 21
449.551189
 31
0.0
  0
LINE
  5
344
  8
0
  6
CONTINUOUS
 62
     2
 10
190.333977
 20
451.201189
 30
0.0
 11
190.333977
 21
449.551189
 31
0.0
  0
LINE
  5
345
  8
0
  6
CONTINUOUS
 62
     2
 10
191.008977
 20
451.201189
 30
0.0
 11
190.333977
 21
451.201189
 31
0.0
  0
LINE
  5
346
  8
0
  6
CONTINUOUS
 62
     2
 10
191.008977
 20
449.551189
 30
0.0
 11
191.008977
 21
451.201189
 31
0.0
  0
LINE
  5
347
  8
0
  6
CONTINUOUS
 62
     2
 10
192.208977
 20
446.551189
 30
0.0
 11
192.208977
 21
447.751189
 31
0.0
  0
ARC
  5
348
  8
0
  6
CONTINUOUS
 62
     2
 10
190.258977
 20
446.701189
 30
0.0
 40
0.3
 50
180.0
 51
270.0
  0
LINE
  5
349
  8
0
  6
CONTINUOUS
 62
     2
 10
190.108977
 20
445.651189
 30
0.0
 11
191.308977
 21
445.651189
 31
0.0
  0
LINE
  5
34A
  8
0
  6
CONTINUOUS
 62
     2
 10
189.208977
 20
441.751189
 30
0.0
 11
192.208977
 21
441.751189
 31
0.0
  0
LINE
  5
34B
  8
0
  6
CONTINUOUS
 62
     2
 10
192.208977
 20
441.751189
 30
0.0
 11
192.208977
 21
442.501189
 31
0.0
  0
LINE
  5
34C
  8
0
  6
CONTINUOUS
 62
     2
 10
189.208977
 20
439.351189
 30
0.0
 11
189.208977
 21
436.501189
 31
0.0
  0
LINE
  5
34D
  8
0
  6
CONTINUOUS
 62
     2
 10
189.208977
 20
436.501189
 30
0.0
 11
189.868977
 21
436.501189
 31
0.0
  0
LINE
  5
34E
  8
0
  6
CONTINUOUS
 62
     2
 10
189.868977
 20
436.501189
 30
0.0
 11
189.868977
 21
437.551189
 31
0.0
  0
LINE
  5
34F
  8
0
  6
CONTINUOUS
 62
     2
 10
189.868977
 20
437.551189
 30
0.0
 11
192.208977
 21
437.551189
 31
0.0
  0
LINE
  5
350
  8
0
  6
CONTINUOUS
 62
     2
 10
192.208977
 20
437.551189
 30
0.0
 11
192.208977
 21
438.301189
 31
0.0
  0
LINE
  5
351
  8
0
  6
CONTINUOUS
 62
     2
 10
192.208977
 20
438.301189
 30
0.0
 11
189.868977
 21
438.301189
 31
0.0
  0
LINE
  5
352
  8
0
  6
CONTINUOUS
 62
     2
 10
189.868977
 20
438.301189
 30
0.0
 11
189.868977
 21
439.351189
 31
0.0
  0
LINE
  5
353
  8
0
  6
CONTINUOUS
 62
     2
 10
189.868977
 20
439.351189
 30
0.0
 11
189.208977
 21
439.351189
 31
0.0
  0
LINE
  5
354
  8
0
  6
CONTINUOUS
 62
     2
 10
189.208977
 20
447.751189
 30
0.0
 11
189.208977
 21
446.551189
 31
0.0
  0
LINE
  5
355
  8
0
  6
CONTINUOUS
 62
     2
 10
191.758977
 20
440.719189
 30
0.0
 11
191.758977
 21
439.483189
 31
0.0
  0
LINE
  5
356
  8
0
  6
CONTINUOUS
 62
     2
 10
191.758977
 20
439.483189
 30
0.0
 11
192.208977
 21
439.321189
 31
0.0
  0
LINE
  5
357
  8
0
  6
CONTINUOUS
 62
     2
 10
191.038977
 20
439.742389
 30
0.0
 11
191.038977
 21
440.459989
 31
0.0
  0
LINE
  5
358
  8
0
  6
CONTINUOUS
 62
     2
 10
190.258977
 20
452.251189
 30
0.0
 11
192.208977
 21
453.601189
 31
0.0
  0
LINE
  5
359
  8
0
  6
CONTINUOUS
 62
     2
 10
189.208977
 20
444.751189
 30
0.0
 11
192.208977
 21
444.751189
 31
0.0
  0
LINE
  5
35A
  8
0
  6
CONTINUOUS
 62
     2
 10
189.208977
 20
439.651189
 30
0.0
 11
192.208977
 21
438.571189
 31
0.0
  0
LINE
  5
35B
  8
0
  6
CONTINUOUS
 62
     2
 10
189.208977
 20
440.551189
 30
0.0
 11
192.208977
 21
441.631189
 31
0.0
  0
LINE
  5
35C
  8
0
  6
CONTINUOUS
 62
     2
 10
189.208977
 20
439.651189
 30
0.0
 11
189.208977
 21
440.551189
 31
0.0
  0
LINE
  5
35D
  8
0
  6
CONTINUOUS
 62
     2
 10
192.208977
 20
438.571189
 30
0.0
 11
192.208977
 21
439.321189
 31
0.0
  0
LINE
  5
35E
  8
0
  6
CONTINUOUS
 62
     2
 10
192.208977
 20
442.501189
 30
0.0
 11
189.208977
 21
442.501189
 31
0.0
  0
ARC
  5
35F
  8
0
  6
CONTINUOUS
 62
     2
 10
191.158977
 20
447.601189
 30
0.0
 40
0.3
 50
0.0
 51
90.0
  0
LINE
  5
360
  8
0
  6
CONTINUOUS
 62
     2
 10
190.04231
 20
440.101189
 30
0.0
 11
191.038977
 21
439.742389
 31
0.0
  0
LINE
  5
361
  8
0
  6
CONTINUOUS
 62
     2
 10
192.208977
 20
441.631189
 30
0.0
 11
192.208977
 21
440.881189
 31
0.0
  0
LINE
  5
362
  8
0
  6
CONTINUOUS
 62
     2
 10
190.04231
 20
440.101189
 30
0.0
 11
191.038977
 21
440.459989
 31
0.0
  0
LINE
  5
363
  8
0
  6
CONTINUOUS
 62
     2
 10
191.458977
 20
451.351189
 30
0.0
 11
191.458977
 21
449.551189
 31
0.0
  0
LINE
  5
364
  8
0
  6
CONTINUOUS
 62
     2
 10
191.458977
 20
449.551189
 30
0.0
 11
191.008977
 21
449.551189
 31
0.0
  0
LINE
  5
365
  8
0
  6
CONTINUOUS
 62
     2
 10
191.758977
 20
440.719189
 30
0.0
 11
192.208977
 21
440.881189
 31
0.0
  0
LINE
  5
366
  8
0
  6
CONTINUOUS
 62
     2
 10
190.558977
 20
442.501189
 30
0.0
 11
192.208977
 21
443.701189
 31
0.0
  0
LINE
  5
367
  8
0
  6
CONTINUOUS
 62
     2
 10
189.208977
 20
442.501189
 30
0.0
 11
189.208977
 21
441.751189
 31
0.0
  0
LINE
  5
368
  8
0
  6
CONTINUOUS
 62
     2
 10
192.208977
 20
445.501189
 30
0.0
 11
189.208977
 21
445.501189
 31
0.0
  0
LINE
  5
369
  8
0
  6
CONTINUOUS
 62
     2
 10
192.208977
 20
444.601189
 30
0.0
 11
190.558977
 21
443.401189
 31
0.0
  0
ARC
  5
36A
  8
0
  6
CONTINUOUS
 62
     2
 10
190.108977
 20
446.551189
 30
0.0
 40
0.9
 50
180.0
 51
270.0
  0
LINE
  5
36B
  8
0
  6
CONTINUOUS
 62
     2
 10
192.208977
 20
443.701189
 30
0.0
 11
192.208977
 21
444.601189
 31
0.0
  0
LINE
  5
36C
  8
0
  6
CONTINUOUS
 62
     2
 10
189.208977
 20
445.501189
 30
0.0
 11
189.208977
 21
444.751189
 31
0.0
  0
ARC
  5
36D
  8
0
  6
CONTINUOUS
 62
     2
 10
191.158977
 20
446.701189
 30
0.0
 40
0.3
 50
270.0
 51
0.0
  0
LINE
  5
36E
  8
0
  6
CONTINUOUS
 62
     2
 10
189.208977
 20
443.551189
 30
0.0
 11
190.558977
 21
442.501189
 31
0.0
  0
LINE
  5
36F
  8
0
  6
CONTINUOUS
 62
     2
 10
189.208977
 20
444.451189
 30
0.0
 11
189.208977
 21
443.551189
 31
0.0
  0
LINE
  5
370
  8
0
  6
CONTINUOUS
 62
     2
 10
192.208977
 20
444.751189
 30
0.0
 11
192.208977
 21
445.501189
 31
0.0
  0
LINE
  5
371
  8
0
  6
CONTINUOUS
 62
     2
 10
190.558977
 20
443.401189
 30
0.0
 11
189.208977
 21
444.451189
 31
0.0
  0
LINE
  5
372
  8
0
  6
CONTINUOUS
 62
     2
 10
189.208977
 20
454.501189
 30
0.0
 11
192.208977
 21
454.501189
 31
0.0
  0
LINE
  5
373
  8
0
  6
CONTINUOUS
 62
     2
 10
189.208977
 20
451.351189
 30
0.0
 11
189.208977
 21
448.801189
 31
0.0
  0
LINE
  5
374
  8
0
  6
CONTINUOUS
 62
     2
 10
189.208977
 20
448.801189
 30
0.0
 11
192.208977
 21
448.801189
 31
0.0
  0
ARC
  5
375
  8
0
  6
CONTINUOUS
 62
     2
 10
190.108977
 20
447.751189
 30
0.0
 40
0.9
 50
90.0
 51
180.0
  0
ARC
  5
376
  8
0
  6
CONTINUOUS
 62
     2
 10
190.258977
 20
447.601189
 30
0.0
 40
0.3
 50
90.0
 51
180.0
  0
ARC
  5
377
  8
0
  6
CONTINUOUS
 62
     2
 10
191.308977
 20
446.551189
 30
0.0
 40
0.9
 50
270.0
 51
0.0
  0
ARC
  5
378
  8
0
  6
CONTINUOUS
 62
     2
 10
191.308977
 20
447.751189
 30
0.0
 40
0.9
 50
0.0
 51
90.0
  0
LINE
  5
379
  8
0
  6
CONTINUOUS
 62
     2
 10
192.208977
 20
448.801189
 30
0.0
 11
192.208977
 21
451.351189
 31
0.0
  0
LINE
  5
37A
  8
0
  6
CONTINUOUS
 62
     2
 10
191.308977
 20
448.651189
 30
0.0
 11
190.558977
 21
448.651189
 31
0.0
  0
LINE
  5
37B
  8
0
  6
CONTINUOUS
 62
     2
 10
190.558977
 20
448.651189
 30
0.0
 11
190.558977
 21
447.151189
 31
0.0
  0
LINE
  5
37C
  8
0
  6
CONTINUOUS
 62
     2
 10
190.558977
 20
447.151189
 30
0.0
 11
191.158977
 21
447.151189
 31
0.0
  0
LINE
  5
37D
  8
0
  6
CONTINUOUS
 62
     2
 10
191.158977
 20
447.151189
 30
0.0
 11
191.158977
 21
447.901189
 31
0.0
  0
LINE
  5
37E
  8
0
  6
CONTINUOUS
 62
     2
 10
191.458977
 20
447.601189
 30
0.0
 11
191.458977
 21
446.701189
 31
0.0
  0
LINE
  5
37F
  8
0
  6
CONTINUOUS
 62
     2
 10
191.158977
 20
446.401189
 30
0.0
 11
190.258977
 21
446.401189
 31
0.0
  0
LINE
  5
380
  8
0
  6
CONTINUOUS
 62
     2
 10
189.958977
 20
446.701189
 30
0.0
 11
189.958977
 21
447.601189
 31
0.0
  0
LINE
  5
381
  8
0
  6
CONTINUOUS
 62
     2
 10
190.258977
 20
447.901189
 30
0.0
 11
190.408977
 21
447.901189
 31
0.0
  0
LINE
  5
382
  8
0
  6
CONTINUOUS
 62
     2
 10
190.408977
 20
447.901189
 30
0.0
 11
190.408977
 21
448.651189
 31
0.0
  0
LINE
  5
383
  8
0
  6
CONTINUOUS
 62
     2
 10
190.408977
 20
448.651189
 30
0.0
 11
190.108977
 21
448.651189
 31
0.0
  0
LINE
  5
384
  8
0
  6
CONTINUOUS
 62
     2
 10
192.208977
 20
454.501189
 30
0.0
 11
192.208977
 21
453.601189
 31
0.0
  0
LINE
  5
385
  8
0
  6
CONTINUOUS
 62
     2
 10
189.208977
 20
454.501189
 30
0.0
 11
189.208977
 21
453.751189
 31
0.0
  0
LINE
  5
386
  8
0
  6
CONTINUOUS
 62
     2
 10
189.208977
 20
453.751189
 30
0.0
 11
191.158977
 21
453.751189
 31
0.0
  0
LINE
  5
387
  8
0
  6
CONTINUOUS
 62
     2
 10
189.208977
 20
452.401189
 30
0.0
 11
191.158977
 21
453.751189
 31
0.0
  0
LINE
  5
388
  8
0
  6
CONTINUOUS
 62
     2
 10
189.208977
 20
452.401189
 30
0.0
 11
189.208977
 21
451.501189
 31
0.0
  0
LINE
  5
389
  8
0
  6
CONTINUOUS
 62
     2
 10
189.208977
 20
451.501189
 30
0.0
 11
192.208977
 21
451.501189
 31
0.0
  0
LINE
  5
38A
  8
0
  6
CONTINUOUS
 62
     2
 10
192.208977
 20
451.501189
 30
0.0
 11
192.208977
 21
452.251189
 31
0.0
  0
ARC
  5
6A6
  8
1
  6
CONTINUOUS
 62
     7
 10
533.570943
 20
200.946794
 30
0.0
 40
0.8
 50
109.290046
 51
270.0
  0
LINE
  5
6A7
  8
1
  6
CONTINUOUS
 62
     7
 10
547.322941
 20
187.469184
 30
0.0
 11
549.504323
 21
200.993752
 31
0.0
  0
LINE
  5
6A8
  8
1
  6
CONTINUOUS
 62
     7
 10
532.218944
 20
187.469184
 30
0.0
 11
530.037562
 21
200.993752
 31
0.0
  0
ARC
  5
6A9
  8
1
  6
CONTINUOUS
 62
     7
 10
545.970943
 20
200.946794
 30
0.0
 40
0.8
 50
270.0
 51
70.709954
  0
LINE
  5
6AA
  8
1
  6
CONTINUOUS
 62
     7
 10
533.570943
 20
200.146794
 30
0.0
 11
545.970943
 21
200.146794
 31
0.0
  0
LINE
  5
6AB
  8
1
  6
CONTINUOUS
 62
     7
 10
539.770943
 20
206.146794
 30
0.0
 11
548.190542
 21
203.199934
 31
0.0
  0
LINE
  5
6AC
  8
1
  6
CONTINUOUS
 62
     7
 10
531.351343
 20
203.199934
 30
0.0
 11
539.770943
 21
206.146794
 31
0.0
  0
LINE
  5
6AD
  8
1
  6
CONTINUOUS
 62
     7
 10
533.306662
 20
201.70188
 30
0.0
 11
539.770943
 21
203.964378
 31
0.0
  0
LINE
  5
6AE
  8
1
  6
CENTER
 62
     2
 10
539.770943
 20
209.146794
 30
0.0
 11
539.770943
 21
197.696794
 31
0.0
  0
LINE
  5
6AF
  8
1
  6
CONTINUOUS
 62
     7
 10
546.235223
 20
201.70188
 30
0.0
 11
539.770943
 21
203.964378
 31
0.0
  0
ARC
  5
6B0
  8
1
  6
CONTINUOUS
 62
     7
 10
531.420943
 20
183.238149
 30
0.0
 40
4.0
 50
0.0
 51
73.319942
  0
ARC
  5
6B1
  8
1
  6
CONTINUOUS
 62
     7
 10
548.120943
 20
183.238149
 30
0.0
 40
4.0
 50
106.680058
 51
180.0
  0
LINE
  5
6B2
  8
1
  6
CENTER
 62
     2
 10
539.770943
 20
194.196794
 30
0.0
 11
539.770943
 21
157.446794
 31
0.0
  0
LINE
  5
6B3
  8
1
  6
CONTINUOUS
 62
     7
 10
535.420943
 20
183.238149
 30
0.0
 11
535.420943
 21
177.646794
 31
0.0
  0
LINE
  5
6B4
  8
1
  6
CONTINUOUS
 62
     7
 10
544.120943
 20
183.238149
 30
0.0
 11
544.120943
 21
177.646794
 31
0.0
  0
ARC
  5
6B5
  8
1
  6
CONTINUOUS
 62
     7
 10
532.712565
 20
187.5488
 30
0.0
 40
0.5
 50
189.162347
 51
253.319942
  0
LINE
  5
6B6
  8
1
  6
CONTINUOUS
 62
     7
 10
535.420943
 20
177.646794
 30
0.0
 11
536.620943
 21
177.646794
 31
0.0
  0
LINE
  5
6B7
  8
1
  6
CONTINUOUS
 62
     7
 10
542.920943
 20
177.646794
 30
0.0
 11
544.120943
 21
177.646794
 31
0.0
  0
ARC
  5
6B8
  8
1
  6
CONTINUOUS
 62
     7
 10
546.82932
 20
187.5488
 30
0.0
 40
0.5
 50
286.680058
 51
350.837653
  0
ARC
  5
6B9
  8
1
  6
CONTINUOUS
 62
     7
 10
532.012044
 20
201.312217
 30
0.0
 40
2.0
 50
109.290046
 51
189.162347
  0
ARC
  5
6BA
  8
1
  6
CONTINUOUS
 62
     7
 10
547.529841
 20
201.312217
 30
0.0
 40
2.0
 50
350.837653
 51
70.709954
  0
LINE
  5
6BB
  8
1
  6
CONTINUOUS
 62
     7
 10
539.220943
 20
160.446794
 30
0.0
 11
538.620943
 21
160.446794
 31
0.0
  0
LINE
  5
6BC
  8
1
  6
CONTINUOUS
 62
     7
 10
536.620943
 20
162.446794
 30
0.0
 11
536.620943
 21
177.646794
 31
0.0
  0
ARC
  5
6BD
  8
1
  6
CONTINUOUS
 62
     7
 10
538.620943
 20
162.446794
 30
0.0
 40
2.0
 50
180.0
 51
270.0
  0
LINE
  5
6BE
  8
1
  6
CONTINUOUS
 62
     7
 10
539.220943
 20
160.446794
 30
0.0
 11
542.920943
 21
164.146794
 31
0.0
  0
LINE
  5
6BF
  8
1
  6
CONTINUOUS
 62
     7
 10
542.920943
 20
164.146794
 30
0.0
 11
542.920943
 21
177.646794
 31
0.0
  0
LINE
  5
6C0
  8
1
  6
CONTINUOUS
 62
     7
 10
531.38064
 20
198.946794
 30
0.0
 11
548.161245
 21
198.946794
 31
0.0
  0
LINE
  5
6C1
  8
1
  6
CONTINUOUS
 62
     7
 10
531.38064
 20
198.946794
 30
0.0
 11
533.158077
 21
187.926685
 31
0.0
  0
LINE
  5
6C2
  8
1
  6
CONTINUOUS
 62
     7
 10
534.539035
 20
187.146794
 30
0.0
 11
545.00285
 21
187.146794
 31
0.0
  0
ARC
  5
6C3
  8
1
  6
CONTINUOUS
 62
     7
 10
548.120943
 20
183.238149
 30
0.0
 40
5.0
 50
110.330018
 51
128.580859
  0
ARC
  5
6C4
  8
1
  6
CONTINUOUS
 62
     7
 10
531.420943
 20
183.238149
 30
0.0
 40
5.0
 50
51.419141
 51
69.669982
  0
LINE
  5
6C5
  8
1
  6
CONTINUOUS
 62
     7
 10
546.383808
 20
187.926685
 30
0.0
 11
548.161245
 21
198.946794
 31
0.0
  0
INSERT
  5
6C6
  8
1
  6
CONTINUOUS
 62
     7
  2
BLK110
 10
539.770943
 20
194.696794
 30
0.0
  0
ENDSEC
  0
EOF

