  0
SECTION
  2
HEADER
  9
$ACADVER
  1
AC1009
  9
$INSBASE
 10
0.0
 20
0.0
 30
0.0
  9
$EXTMIN
 10
91.82315
 20
20.0
 30
0.0
  9
$EXTMAX
 10
385.0
 20
260.448716
 30
0.0
  9
$LIMMIN
 10
0.0
 20
0.0
  9
$LIMMAX
 10
420.0
 20
297.0
  9
$ORTHOMODE
 70
     0
  9
$REGENMODE
 70
     1
  9
$FILLMODE
 70
     1
  9
$QTEXTMODE
 70
     0
  9
$MIRRTEXT
 70
     1
  9
$DRAGMODE
 70
     2
  9
$LTSCALE
 40
1.0
  9
$OSMODE
 70
     0
  9
$ATTMODE
 70
     1
  9
$TEXTSIZE
 40
0.2
  9
$TRACEWID
 40
0.05
  9
$TEXTSTYLE
  7
STANDARD
  9
$CLAYER
  8
0
  9
$CELTYPE
  6
CONTINUOUS
  9
$CECOLOR
 62
   256
  9
$DIMSCALE
 40
1.0
  9
$DIMASZ
 40
0.18
  9
$DIMEXO
 40
0.0625
  9
$DIMDLI
 40
0.38
  9
$DIMRND
 40
0.0
  9
$DIMDLE
 40
0.0
  9
$DIMEXE
 40
0.18
  9
$DIMTP
 40
0.0
  9
$DIMTM
 40
0.0
  9
$DIMTXT
 40
0.18
  9
$DIMCEN
 40
0.09
  9
$DIMTSZ
 40
0.0
  9
$DIMTOL
 70
     0
  9
$DIMLIM
 70
     0
  9
$DIMTIH
 70
     1
  9
$DIMTOH
 70
     1
  9
$DIMSE1
 70
     0
  9
$DIMSE2
 70
     0
  9
$DIMTAD
 70
     0
  9
$DIMZIN
 70
     0
  9
$DIMBLK
  1

  9
$DIMASO
 70
     1
  9
$DIMSHO
 70
     1
  9
$DIMPOST
  1

  9
$DIMAPOST
  1

  9
$DIMALT
 70
     0
  9
$DIMALTD
 70
     2
  9
$DIMALTF
 40
25.4
  9
$DIMLFAC
 40
1.0
  9
$DIMTOFL
 70
     0
  9
$DIMTVP
 40
0.0
  9
$DIMTIX
 70
     0
  9
$DIMSOXD
 70
     0
  9
$DIMSAH
 70
     0
  9
$DIMBLK1
  1

  9
$DIMBLK2
  1

  9
$DIMSTYLE
  2
STANDARD
  9
$DIMCLRD
 70
     0
  9
$DIMCLRE
 70
     0
  9
$DIMCLRT
 70
     0
  9
$DIMTFAC
 40
1.0
  9
$DIMGAP
 40
0.09
  9
$LUNITS
 70
     2
  9
$LUPREC
 70
     4
  9
$SKETCHINC
 40
0.1
  9
$FILLETRAD
 40
0.0
  9
$AUNITS
 70
     0
  9
$AUPREC
 70
     0
  9
$MENU
  1
acad
  9
$ELEVATION
 40
0.0
  9
$PELEVATION
 40
0.0
  9
$THICKNESS
 40
0.0
  9
$LIMCHECK
 70
     0
  9
$BLIPMODE
 70
     0
  9
$CHAMFERA
 40
0.0
  9
$CHAMFERB
 40
0.0
  9
$SKPOLY
 70
     0
  9
$TDCREATE
 40
2451642.714074
  9
$TDUPDATE
 40
2451652.468389
  9
$TDINDWG
 40
0.000106
  9
$TDUSRTIMER
 40
0.000106
  9
$USRTIMER
 70
     1
  9
$ANGBASE
 50
0.0
  9
$ANGDIR
 70
     0
  9
$PDMODE
 70
     0
  9
$PDSIZE
 40
0.0
  9
$PLINEWID
 40
0.0
  9
$COORDS
 70
     1
  9
$SPLFRAME
 70
     0
  9
$SPLINETYPE
 70
     6
  9
$SPLINESEGS
 70
     8
  9
$ATTDIA
 70
     0
  9
$ATTREQ
 70
     1
  9
$HANDLING
 70
     1
  9
$HANDSEED
  5
17E
  9
$SURFTAB1
 70
     6
  9
$SURFTAB2
 70
     6
  9
$SURFTYPE
 70
     6
  9
$SURFU
 70
     6
  9
$SURFV
 70
     6
  9
$UCSNAME
  2

  9
$UCSORG
 10
0.0
 20
0.0
 30
0.0
  9
$UCSXDIR
 10
1.0
 20
0.0
 30
0.0
  9
$UCSYDIR
 10
0.0
 20
1.0
 30
0.0
  9
$PUCSNAME
  2

  9
$PUCSORG
 10
0.0
 20
0.0
 30
0.0
  9
$PUCSXDIR
 10
1.0
 20
0.0
 30
0.0
  9
$PUCSYDIR
 10
0.0
 20
1.0
 30
0.0
  9
$USERI1
 70
     0
  9
$USERI2
 70
     0
  9
$USERI3
 70
     0
  9
$USERI4
 70
     0
  9
$USERI5
 70
     0
  9
$USERR1
 40
0.0
  9
$USERR2
 40
0.0
  9
$USERR3
 40
0.0
  9
$USERR4
 40
0.0
  9
$USERR5
 40
0.0
  9
$WORLDVIEW
 70
     1
  9
$SHADEDGE
 70
     3
  9
$SHADEDIF
 70
    70
  9
$TILEMODE
 70
     1
  9
$MAXACTVP
 70
    48
  9
$PLIMCHECK
 70
     0
  9
$PEXTMIN
 10
1.000000E+020
 20
1.000000E+020
 30
1.000000E+020
  9
$PEXTMAX
 10
-1.000000E+020
 20
-1.000000E+020
 30
-1.000000E+020
  9
$PLIMMIN
 10
0.0
 20
0.0
  9
$PLIMMAX
 10
12.0
 20
9.0
  9
$UNITMODE
 70
     0
  9
$VISRETAIN
 70
     1
  9
$PLINEGEN
 70
     0
  9
$PSLTSCALE
 70
     1
  0
ENDSEC
  0
SECTION
  2
TABLES
  0
TABLE
  2
VPORT
 70
     2
  0
VPORT
  2
*ACTIVE
 70
     0
 10
0.0
 20
0.0
 11
1.0
 21
1.0
 12
272.447211
 22
148.5
 13
0.0
 23
0.0
 14
1.0
 24
1.0
 15
0.0
 25
0.0
 16
0.0
 26
0.0
 36
1.0
 17
0.0
 27
0.0
 37
0.0
 40
297.0
 41
1.834661
 42
50.0
 43
0.0
 44
0.0
 50
0.0
 51
0.0
 71
     0
 72
   100
 73
     1
 74
     1
 75
     0
 76
     0
 77
     0
 78
     0
  0
ENDTAB
  0
TABLE
  2
LTYPE
 70
     3
  0
LTYPE
  2
CONTINUOUS
 70
     0
  3
______________
 72
    65
 73
     0
 40
0.0
  0
LTYPE
  2
CENTER
 70
     0
  3
Center ____ _ ____ _ ____ _ ____ _ ____ _ ____
 72
    65
 73
     4
 40
2.0
 49
1.25
 49
-0.25
 49
0.25
 49
-0.25
  0
LTYPE
  2
HIDDEN
 70
     0
  3
Hidden __ __ __ __ __ __ __ __ __ __ __ __ __ _
 72
    65
 73
     2
 40
0.375
 49
0.25
 49
-0.125
  0
ENDTAB
  0
TABLE
  2
LAYER
 70
     2
  0
LAYER
  2
0
 70
     0
 62
     7
  6
CONTINUOUS
  0
LAYER
  2
1
 70
     0
 62
     7
  6
CONTINUOUS
  0
ENDTAB
  0
TABLE
  2
STYLE
 70
     1
  0
STYLE
  2
STANDARD
 70
     0
 40
0.0
 41
1.0
 50
0.0
 71
     0
 42
3.2
  3
TXT
  4
EXTFONT
  0
ENDTAB
  0
TABLE
  2
VIEW
 70
     0
  0
ENDTAB
  0
TABLE
  2
UCS
 70
     0
  0
ENDTAB
  0
TABLE
  2
APPID
 70
     1
  0
APPID
  2
ACAD
 70
     0
  0
ENDTAB
  0
TABLE
  2
DIMSTYLE
 70
     1
  0
DIMSTYLE
  2
STANDARD
 70
     0
  3

  4

  5

  6

  7

 40
1.0
 41
0.18
 42
0.0625
 43
0.38
 44
0.18
 45
0.0
 46
0.0
 47
0.0
 48
0.0
140
0.18
141
0.09
142
0.0
143
25.4
144
1.0
145
0.0
146
1.0
147
0.09
 71
     0
 72
     0
 73
     1
 74
     1
 75
     0
 76
     0
 77
     0
 78
     0
170
     0
171
     2
172
     0
173
     0
174
     0
175
     0
176
     0
177
     0
178
     0
  0
ENDTAB
  0
ENDSEC
  0
SECTION
  2
BLOCKS
  0
BLOCK
  8
0
  2
$MODEL_SPACE
 70
     0
 10
0.0
 20
0.0
 30
0.0
  3
$MODEL_SPACE
  1

  0
ENDBLK
  5
1A
  8
0
  0
BLOCK
 67
     1
  8
0
  2
$PAPER_SPACE
 70
     0
 10
0.0
 20
0.0
 30
0.0
  3
$PAPER_SPACE
  1

  0
ENDBLK
  5
17
 67
     1
  8
0
  0
BLOCK
  8
0
  2
BLK87
 70
     0
 10
129.524521
 20
188.755586
 30
0.0
  3
BLK87
  1

  0
LINE
  5
27
  8
1
  6
CONTINUOUS
 62
     2
 10
126.374521
 20
177.257086
 30
0.0
 11
129.524521
 21
177.257086
 31
0.0
  0
LINE
  5
28
  8
1
  6
CONTINUOUS
 62
     2
 10
129.524521
 20
187.892305
 30
0.0
 11
129.524521
 21
188.755586
 31
0.0
  0
LINE
  5
29
  8
1
  6
CONTINUOUS
 62
     2
 10
125.524521
 20
185.745985
 30
0.0
 11
127.324521
 21
184.32411
 31
0.0
  0
LINE
  5
2A
  8
1
  6
CONTINUOUS
 62
     2
 10
125.524521
 20
188.755586
 30
0.0
 11
125.524521
 21
187.892305
 31
0.0
  0
LINE
  5
2B
  8
1
  6
CONTINUOUS
 62
     2
 10
125.524521
 20
201.873907
 30
0.0
 11
129.524521
 21
201.873907
 31
0.0
  0
LINE
  5
2C
  8
1
  6
CONTINUOUS
 62
     2
 10
125.524521
 20
186.964735
 30
0.0
 11
125.524521
 21
185.745985
 31
0.0
  0
LINE
  5
2D
  8
1
  6
CONTINUOUS
 62
     2
 10
125.524521
 20
197.530485
 30
0.0
 11
125.524521
 21
194.280485
 31
0.0
  0
LINE
  5
2E
  8
1
  6
CONTINUOUS
 62
     2
 10
125.524521
 20
201.873907
 30
0.0
 11
125.524521
 21
201.010625
 31
0.0
  0
LINE
  5
2F
  8
1
  6
CONTINUOUS
 62
     2
 10
129.524521
 20
201.873907
 30
0.0
 11
129.524521
 21
200.858282
 31
0.0
  0
LINE
  5
30
  8
1
  6
CONTINUOUS
 62
     2
 10
125.524521
 20
199.436407
 30
0.0
 11
128.124521
 21
201.010625
 31
0.0
  0
LINE
  5
31
  8
1
  6
CONTINUOUS
 62
     2
 10
129.524521
 20
198.420782
 30
0.0
 11
129.524521
 21
199.284063
 31
0.0
  0
LINE
  5
32
  8
1
  6
CONTINUOUS
 62
     2
 10
127.324521
 20
185.54286
 30
0.0
 11
125.524521
 21
186.964735
 31
0.0
  0
LINE
  5
33
  8
1
  6
CONTINUOUS
 62
     2
 10
129.524521
 20
185.94911
 30
0.0
 11
129.524521
 21
187.16786
 31
0.0
  0
LINE
  5
34
  8
1
  6
CONTINUOUS
 62
     2
 10
125.524521
 20
199.436407
 30
0.0
 11
125.524521
 21
198.420782
 31
0.0
  0
LINE
  5
35
  8
1
  6
CONTINUOUS
 62
     2
 10
126.677063
 20
180.835524
 30
0.0
 11
128.074521
 21
181.371307
 31
0.0
  0
LINE
  5
36
  8
1
  6
CONTINUOUS
 62
     2
 10
129.524521
 20
182.790516
 30
0.0
 11
129.524521
 21
181.927235
 31
0.0
  0
LINE
  5
37
  8
1
  6
CONTINUOUS
 62
     2
 10
126.374521
 20
190.851125
 30
0.0
 11
126.374521
 21
192.120657
 31
0.0
  0
LINE
  5
38
  8
1
  6
CONTINUOUS
 62
     2
 10
129.524521
 20
184.32411
 30
0.0
 11
125.524521
 21
184.32411
 31
0.0
  0
LINE
  5
39
  8
1
  6
CONTINUOUS
 62
     2
 10
126.774521
 20
192.526907
 30
0.0
 11
127.124521
 21
192.526907
 31
0.0
  0
LINE
  5
3A
  8
1
  6
CONTINUOUS
 62
     2
 10
129.524521
 20
178.931141
 30
0.0
 11
129.524521
 21
179.794422
 31
0.0
  0
LINE
  5
3B
  8
1
  6
CONTINUOUS
 62
     2
 10
126.374521
 20
175.911383
 30
0.0
 11
126.374521
 21
177.257086
 31
0.0
  0
LINE
  5
3C
  8
1
  6
CONTINUOUS
 62
     2
 10
125.524521
 20
175.911383
 30
0.0
 11
126.374521
 21
175.911383
 31
0.0
  0
LINE
  5
3D
  8
1
  6
CONTINUOUS
 62
     2
 10
125.524521
 20
179.466071
 30
0.0
 11
125.524521
 21
175.911383
 31
0.0
  0
LINE
  5
3E
  8
1
  6
CONTINUOUS
 62
     2
 10
129.524521
 20
183.460829
 30
0.0
 11
129.524521
 21
184.32411
 31
0.0
  0
LINE
  5
3F
  8
1
  6
CONTINUOUS
 62
     2
 10
125.524521
 20
183.460829
 30
0.0
 11
129.524521
 21
183.460829
 31
0.0
  0
LINE
  5
40
  8
1
  6
CONTINUOUS
 62
     2
 10
126.724521
 20
189.581594
 30
0.0
 11
128.324521
 21
189.581594
 31
0.0
  0
INSERT
  5
42
  8
1
  6
CONTINUOUS
 62
     2
  2
BLK171
 10
126.774521
 20
190.851125
 30
0.0
 41
0.40625
 42
0.4
 50
90.0
  0
LINE
  5
43
  8
1
  6
CONTINUOUS
 62
     2
 10
129.524521
 20
190.800344
 30
0.0
 11
129.524521
 21
192.171438
 31
0.0
  0
INSERT
  5
45
  8
1
  6
CONTINUOUS
 62
     2
  2
BLK173
 10
126.724521
 20
190.800344
 30
0.0
 41
1.21875
 42
1.2
 50
90.0
  0
LINE
  5
46
  8
1
  6
CONTINUOUS
 62
     2
 10
127.924521
 20
192.526907
 30
0.0
 11
128.274521
 21
192.526907
 31
0.0
  0
INSERT
  5
48
  8
1
  6
CONTINUOUS
 62
     2
  2
BLK175
 10
128.324521
 20
190.800344
 30
0.0
 41
1.21875
 42
1.2
 50
90.0
  0
INSERT
  5
4A
  8
1
  6
CONTINUOUS
 62
     2
  2
BLK178
 10
128.274521
 20
192.120657
 30
0.0
 41
0.40625
 42
0.4
 50
90.0
  0
LINE
  5
4B
  8
1
  6
CONTINUOUS
 62
     2
 10
129.524521
 20
199.284063
 30
0.0
 11
126.924521
 21
199.284063
 31
0.0
  0
LINE
  5
4C
  8
1
  6
CONTINUOUS
 62
     2
 10
129.524521
 20
197.530485
 30
0.0
 11
128.524521
 21
197.530485
 31
0.0
  0
LINE
  5
4D
  8
1
  6
CONTINUOUS
 62
     2
 10
128.524521
 20
197.530485
 30
0.0
 11
128.524521
 21
195.143766
 31
0.0
  0
LINE
  5
4E
  8
1
  6
CONTINUOUS
 62
     2
 10
128.524521
 20
195.143766
 30
0.0
 11
127.924521
 21
195.143766
 31
0.0
  0
LINE
  5
4F
  8
1
  6
CONTINUOUS
 62
     2
 10
127.924521
 20
195.143766
 30
0.0
 11
127.924521
 21
197.32736
 31
0.0
  0
LINE
  5
50
  8
1
  6
CONTINUOUS
 62
     2
 10
127.924521
 20
197.32736
 30
0.0
 11
127.024521
 21
197.32736
 31
0.0
  0
LINE
  5
51
  8
1
  6
CONTINUOUS
 62
     2
 10
127.024521
 20
197.32736
 30
0.0
 11
127.024521
 21
195.143766
 31
0.0
  0
LINE
  5
52
  8
1
  6
CONTINUOUS
 62
     2
 10
127.024521
 20
195.143766
 30
0.0
 11
126.374521
 21
195.143766
 31
0.0
  0
LINE
  5
53
  8
1
  6
CONTINUOUS
 62
     2
 10
126.374521
 20
195.143766
 30
0.0
 11
126.374521
 21
197.530485
 31
0.0
  0
LINE
  5
54
  8
1
  6
CONTINUOUS
 62
     2
 10
126.374521
 20
197.530485
 30
0.0
 11
125.524521
 21
197.530485
 31
0.0
  0
LINE
  5
55
  8
1
  6
CONTINUOUS
 62
     2
 10
126.374521
 20
178.120368
 30
0.0
 11
126.374521
 21
179.466071
 31
0.0
  0
LINE
  5
56
  8
1
  6
CONTINUOUS
 62
     2
 10
128.924521
 20
180.013797
 30
0.0
 11
129.524521
 21
179.794422
 31
0.0
  0
LINE
  5
57
  8
1
  6
CONTINUOUS
 62
     2
 10
127.924521
 20
191.358938
 30
0.0
 11
127.924521
 21
192.526907
 31
0.0
  0
LINE
  5
58
  8
1
  6
CONTINUOUS
 62
     2
 10
127.324521
 20
193.390188
 30
0.0
 11
127.324521
 21
191.358938
 31
0.0
  0
LINE
  5
59
  8
1
  6
CONTINUOUS
 62
     2
 10
125.524521
 20
201.010625
 30
0.0
 11
128.124521
 21
201.010625
 31
0.0
  0
LINE
  5
5A
  8
1
  6
CONTINUOUS
 62
     2
 10
129.524521
 20
178.120368
 30
0.0
 11
126.374521
 21
178.120368
 31
0.0
  0
LINE
  5
5B
  8
1
  6
CONTINUOUS
 62
     2
 10
126.924521
 20
199.284063
 30
0.0
 11
129.524521
 21
200.858282
 31
0.0
  0
LINE
  5
5C
  8
1
  6
CONTINUOUS
 62
     2
 10
128.274521
 20
190.444875
 30
0.0
 11
126.774521
 21
190.444875
 31
0.0
  0
LINE
  5
5D
  8
1
  6
CONTINUOUS
 62
     2
 10
127.124521
 20
192.526907
 30
0.0
 11
127.124521
 21
193.390188
 31
0.0
  0
LINE
  5
5E
  8
1
  6
CONTINUOUS
 62
     2
 10
125.524521
 20
180.393641
 30
0.0
 11
125.524521
 21
181.256922
 31
0.0
  0
LINE
  5
5F
  8
1
  6
CONTINUOUS
 62
     2
 10
125.524521
 20
192.171438
 30
0.0
 11
125.524521
 21
190.800344
 31
0.0
  0
LINE
  5
60
  8
1
  6
CONTINUOUS
 62
     2
 10
126.677063
 20
180.835524
 30
0.0
 11
128.074521
 21
180.324579
 31
0.0
  0
LINE
  5
61
  8
1
  6
CONTINUOUS
 62
     2
 10
127.124521
 20
193.390188
 30
0.0
 11
126.724521
 21
193.390188
 31
0.0
  0
LINE
  5
62
  8
1
  6
CONTINUOUS
 62
     2
 10
125.524521
 20
194.280485
 30
0.0
 11
129.524521
 21
194.280485
 31
0.0
  0
INSERT
  5
64
  8
1
  6
CONTINUOUS
 62
     2
  2
BLK228
 10
128.324521
 20
192.171438
 30
0.0
 41
1.21875
 42
1.2
 50
90.0
  0
LINE
  5
65
  8
1
  6
CONTINUOUS
 62
     2
 10
125.524521
 20
180.393641
 30
0.0
 11
129.524521
 21
178.931141
 31
0.0
  0
LINE
  5
66
  8
1
  6
CONTINUOUS
 62
     2
 10
128.924521
 20
181.697196
 30
0.0
 11
128.924521
 21
180.013797
 31
0.0
  0
LINE
  5
67
  8
1
  6
CONTINUOUS
 62
     2
 10
128.074521
 20
180.324579
 30
0.0
 11
128.074521
 21
181.371307
 31
0.0
  0
LINE
  5
68
  8
1
  6
CONTINUOUS
 62
     2
 10
125.524521
 20
187.892305
 30
0.0
 11
129.524521
 21
187.892305
 31
0.0
  0
LINE
  5
69
  8
1
  6
CONTINUOUS
 62
     2
 10
128.674521
 20
192.120657
 30
0.0
 11
128.674521
 21
190.851125
 31
0.0
  0
INSERT
  5
6B
  8
1
  6
CONTINUOUS
 62
     2
  2
BLK234
 10
126.724521
 20
192.171438
 30
0.0
 41
1.21875
 42
1.2
 50
90.0
  0
LINE
  5
6C
  8
1
  6
CONTINUOUS
 62
     2
 10
128.324521
 20
193.390188
 30
0.0
 11
127.324521
 21
193.390188
 31
0.0
  0
LINE
  5
6D
  8
1
  6
CONTINUOUS
 62
     2
 10
126.374521
 20
179.466071
 30
0.0
 11
125.524521
 21
179.466071
 31
0.0
  0
LINE
  5
6E
  8
1
  6
CONTINUOUS
 62
     2
 10
125.524521
 20
181.256922
 30
0.0
 11
129.524521
 21
182.790516
 31
0.0
  0
INSERT
  5
70
  8
1
  6
CONTINUOUS
 62
     2
  2
BLK238
 10
126.774521
 20
192.120657
 30
0.0
 41
0.40625
 42
0.4
 50
90.0
  0
LINE
  5
71
  8
1
  6
CONTINUOUS
 62
     2
 10
129.524521
 20
194.280485
 30
0.0
 11
129.524521
 21
197.530485
 31
0.0
  0
LINE
  5
72
  8
1
  6
CONTINUOUS
 62
     2
 10
127.324521
 20
191.358938
 30
0.0
 11
127.924521
 21
191.358938
 31
0.0
  0
LINE
  5
73
  8
1
  6
CONTINUOUS
 62
     2
 10
129.524521
 20
177.257086
 30
0.0
 11
129.524521
 21
178.120368
 31
0.0
  0
INSERT
  5
75
  8
1
  6
CONTINUOUS
 62
     2
  2
BLK243
 10
128.274521
 20
190.851125
 30
0.0
 41
0.40625
 42
0.4
 50
90.0
  0
LINE
  5
76
  8
1
  6
CONTINUOUS
 62
     2
 10
125.524521
 20
184.32411
 30
0.0
 11
125.524521
 21
183.460829
 31
0.0
  0
LINE
  5
77
  8
1
  6
CONTINUOUS
 62
     2
 10
125.524521
 20
198.420782
 30
0.0
 11
129.524521
 21
198.420782
 31
0.0
  0
LINE
  5
78
  8
1
  6
CONTINUOUS
 62
     2
 10
128.924521
 20
181.697196
 30
0.0
 11
129.524521
 21
181.927235
 31
0.0
  0
LINE
  5
79
  8
1
  6
CONTINUOUS
 62
     2
 10
127.324521
 20
184.32411
 30
0.0
 11
129.524521
 21
185.94911
 31
0.0
  0
LINE
  5
7A
  8
1
  6
CONTINUOUS
 62
     2
 10
129.524521
 20
188.755586
 30
0.0
 11
125.524521
 21
188.755586
 31
0.0
  0
LINE
  5
7B
  8
1
  6
CONTINUOUS
 62
     2
 10
129.524521
 20
187.16786
 30
0.0
 11
127.324521
 21
185.54286
 31
0.0
  0
ENDBLK
  5
7C
  8
0
  0
BLOCK
  8
0
  2
BLK171
 70
     0
 10
0.0
 20
0.0
 30
0.0
  3
BLK171
  1

  0
ARC
  5
7E
  8
1
  6
CONTINUOUS
 62
     2
 10
0.0
 20
0.0
 30
0.0
 40
1.0
 50
90.0
 51
180.0
  0
ENDBLK
  5
7F
  8
0
  0
BLOCK
  8
0
  2
BLK173
 70
     0
 10
0.0
 20
0.0
 30
0.0
  3
BLK173
  1

  0
ARC
  5
81
  8
1
  6
CONTINUOUS
 62
     2
 10
0.0
 20
0.0
 30
0.0
 40
1.0
 50
90.0
 51
180.0
  0
ENDBLK
  5
82
  8
0
  0
BLOCK
  8
0
  2
BLK175
 70
     0
 10
0.0
 20
0.0
 30
0.0
  3
BLK175
  1

  0
ARC
  5
84
  8
1
  6
CONTINUOUS
 62
     2
 10
0.0
 20
0.0
 30
0.0
 40
1.0
 50
180.0
 51
270.0
  0
ENDBLK
  5
85
  8
0
  0
BLOCK
  8
0
  2
BLK178
 70
     0
 10
0.0
 20
0.0
 30
0.0
  3
BLK178
  1

  0
ARC
  5
87
  8
1
  6
CONTINUOUS
 62
     2
 10
0.0
 20
0.0
 30
0.0
 40
1.0
 50
270.0
 51
0.0
  0
ENDBLK
  5
88
  8
0
  0
BLOCK
  8
0
  2
BLK228
 70
     0
 10
0.0
 20
0.0
 30
0.0
  3
BLK228
  1

  0
ARC
  5
8A
  8
1
  6
CONTINUOUS
 62
     2
 10
0.0
 20
0.0
 30
0.0
 40
1.0
 50
270.0
 51
0.0
  0
ENDBLK
  5
8B
  8
0
  0
BLOCK
  8
0
  2
BLK234
 70
     0
 10
0.0
 20
0.0
 30
0.0
  3
BLK234
  1

  0
ARC
  5
8D
  8
1
  6
CONTINUOUS
 62
     2
 10
0.0
 20
0.0
 30
0.0
 40
1.0
 50
0.0
 51
90.0
  0
ENDBLK
  5
8E
  8
0
  0
BLOCK
  8
0
  2
BLK238
 70
     0
 10
0.0
 20
0.0
 30
0.0
  3
BLK238
  1

  0
ARC
  5
90
  8
1
  6
CONTINUOUS
 62
     2
 10
0.0
 20
0.0
 30
0.0
 40
1.0
 50
0.0
 51
90.0
  0
ENDBLK
  5
91
  8
0
  0
BLOCK
  8
0
  2
BLK243
 70
     0
 10
0.0
 20
0.0
 30
0.0
  3
BLK243
  1

  0
ARC
  5
93
  8
1
  6
CONTINUOUS
 62
     2
 10
0.0
 20
0.0
 30
0.0
 40
1.0
 50
180.0
 51
270.0
  0
ENDBLK
  5
94
  8
0
  0
ENDSEC
  0
SECTION
  2
ENTITIES
  0
CIRCLE
  5
95
  8
1
  6
CONTINUOUS
 62
     7
 10
295.524521
 20
136.326609
 30
0.0
 40
5.2
  0
LINE
  5
96
  8
1
  6
CENTER
 62
     2
 10
309.921366
 20
145.576609
 30
0.0
 11
304.957901
 21
145.576609
 31
0.0
  0
LINE
  5
97
  8
1
  6
CONTINUOUS
 62
     7
 10
311.524521
 20
142.076609
 30
0.0
 11
303.524521
 21
142.076609
 31
0.0
  0
LINE
  5
98
  8
1
  6
CONTINUOUS
 62
     7
 10
311.524521
 20
142.076609
 30
0.0
 11
311.024521
 21
141.576609
 31
0.0
  0
LINE
  5
99
  8
1
  6
CONTINUOUS
 62
     7
 10
304.024521
 20
141.576609
 30
0.0
 11
303.524521
 21
142.076609
 31
0.0
  0
LINE
  5
9A
  8
1
  6
CONTINUOUS
 62
     7
 10
303.524521
 20
142.076609
 30
0.0
 11
303.524521
 21
147.241445
 31
0.0
  0
LINE
  5
9B
  8
1
  6
CONTINUOUS
 62
     7
 10
311.024521
 20
141.576609
 30
0.0
 11
304.024521
 21
141.576609
 31
0.0
  0
ARC
  5
9C
  8
1
  6
CONTINUOUS
 62
     7
 10
307.524521
 20
226.206073
 30
0.0
 40
6.558036
 50
7.62815
 51
172.37185
  0
ARC
  5
9D
  8
1
  6
CONTINUOUS
 62
     7
 10
304.624521
 20
93.572395
 30
0.0
 40
2.9
 50
230.917793
 51
348.485718
  0
ARC
  5
9E
  8
1
  6
CONTINUOUS
 62
     7
 10
304.624521
 20
93.572395
 30
0.0
 40
2.0
 50
230.917793
 51
346.473336
  0
LINE
  5
9F
  8
1
  6
CONTINUOUS
 62
     7
 10
298.024521
 20
157.326609
 30
0.0
 11
298.524521
 21
156.826609
 31
0.0
  0
LINE
  5
A0
  8
1
  6
CONTINUOUS
 62
     7
 10
316.524521
 20
156.826609
 30
0.0
 11
317.024521
 21
157.326609
 31
0.0
  0
LINE
  5
A1
  8
1
  6
HIDDEN
 62
     4
 10
313.174521
 20
174.826609
 30
0.0
 11
312.824521
 21
175.326609
 31
0.0
  0
LINE
  5
A2
  8
1
  6
HIDDEN
 62
     4
 10
302.224521
 20
175.326609
 30
0.0
 11
301.874521
 21
174.826609
 31
0.0
  0
LINE
  5
A3
  8
1
  6
HIDDEN
 62
     4
 10
301.874521
 20
174.826609
 30
0.0
 11
301.874521
 21
158.326609
 31
0.0
  0
LINE
  5
A4
  8
1
  6
HIDDEN
 62
     4
 10
312.824521
 20
175.326609
 30
0.0
 11
302.224521
 21
175.326609
 31
0.0
  0
LINE
  5
A5
  8
1
  6
HIDDEN
 62
     4
 10
313.174521
 20
158.326609
 30
0.0
 11
313.174521
 21
174.826609
 31
0.0
  0
LINE
  5
A6
  8
1
  6
CONTINUOUS
 62
     7
 10
298.524521
 20
156.826609
 30
0.0
 11
316.524521
 21
156.826609
 31
0.0
  0
LINE
  5
A7
  8
1
  6
CONTINUOUS
 62
     7
 10
298.024521
 20
158.326609
 30
0.0
 11
298.024521
 21
157.326609
 31
0.0
  0
LINE
  5
A8
  8
1
  6
CONTINUOUS
 62
     7
 10
317.024521
 20
157.326609
 30
0.0
 11
317.024521
 21
158.326609
 31
0.0
  0
LINE
  5
A9
  8
1
  6
CONTINUOUS
 62
     7
 10
317.024521
 20
219.326609
 30
0.0
 11
316.524521
 21
219.826609
 31
0.0
  0
LINE
  5
AA
  8
1
  6
CONTINUOUS
 62
     7
 10
298.524521
 20
219.826609
 30
0.0
 11
298.024521
 21
219.326609
 31
0.0
  0
LINE
  5
AB
  8
1
  6
HIDDEN
 62
     4
 10
312.824521
 20
201.326609
 30
0.0
 11
313.174521
 21
201.826609
 31
0.0
  0
ARC
  5
AC
  8
1
  6
HIDDEN
 62
     4
 10
300.509173
 20
60.143109
 30
0.0
 40
2.0
 50
160.0
 51
270.0
  0
ARC
  5
AD
  8
1
  6
CONTINUOUS
 62
     7
 10
307.524521
 20
97.143109
 30
0.0
 40
7.5
 50
149.970206
 51
230.917793
  0
LINE
  5
AE
  8
1
  6
CONTINUOUS
 62
     7
 10
314.017761
 20
100.896486
 30
0.0
 11
312.953348
 21
100.896486
 31
0.0
  0
LINE
  5
AF
  8
1
  6
HIDDEN
 62
     4
 10
313.174521
 20
201.826609
 30
0.0
 11
313.174521
 21
218.326609
 31
0.0
  0
LINE
  5
B0
  8
1
  6
HIDDEN
 62
     4
 10
302.224521
 20
201.326609
 30
0.0
 11
312.824521
 21
201.326609
 31
0.0
  0
LINE
  5
B1
  8
1
  6
HIDDEN
 62
     4
 10
301.874521
 20
218.326609
 30
0.0
 11
301.874521
 21
201.826609
 31
0.0
  0
LINE
  5
B2
  8
1
  6
CONTINUOUS
 62
     7
 10
316.524521
 20
219.826609
 30
0.0
 11
298.524521
 21
219.826609
 31
0.0
  0
LINE
  5
B3
  8
1
  6
CONTINUOUS
 62
     7
 10
317.024521
 20
218.326609
 30
0.0
 11
317.024521
 21
219.326609
 31
0.0
  0
LINE
  5
B4
  8
1
  6
CONTINUOUS
 62
     7
 10
298.024521
 20
219.326609
 30
0.0
 11
298.024521
 21
218.326609
 31
0.0
  0
CIRCLE
  5
B5
  8
1
  6
CONTINUOUS
 62
     7
 10
295.524521
 20
240.326609
 30
0.0
 40
5.2
  0
ARC
  5
B6
  8
1
  6
CONTINUOUS
 62
     7
 10
307.524521
 20
97.143109
 30
0.0
 40
6.6
 50
145.340832
 51
230.917793
  0
LINE
  5
B7
  8
1
  6
CONTINUOUS
 62
     7
 10
301.031281
 20
100.896486
 30
0.0
 11
302.095694
 21
100.896486
 31
0.0
  0
LINE
  5
B8
  8
1
  6
HIDDEN
 62
     4
 10
293.875136
 20
59.459069
 30
0.0
 11
301.288511
 21
79.827149
 31
0.0
  0
ARC
  5
B9
  8
1
  6
HIDDEN
 62
     4
 10
303.167896
 20
79.143109
 30
0.0
 40
2.0
 50
340.0
 51
160.0
  0
LINE
  5
BA
  8
1
  6
HIDDEN
 62
     4
 10
305.047281
 20
78.459069
 30
0.0
 11
298.629787
 21
60.827149
 31
0.0
  0
ARC
  5
BB
  8
1
  6
HIDDEN
 62
     4
 10
291.99575
 20
60.143109
 30
0.0
 40
2.0
 50
270.0
 51
340.0
  0
ARC
  5
BC
  8
1
  6
CONTINUOUS
 62
     7
 10
299.524521
 20
62.852978
 30
0.0
 40
20.0
 50
150.368389
 51
180.0
  0
ARC
  5
BD
  8
1
  6
CONTINUOUS
 62
     7
 10
307.524521
 20
97.143109
 30
0.0
 40
10.0
 50
351.078152
 51
150.368389
  0
LINE
  5
BE
  8
1
  6
CONTINUOUS
 62
     7
 10
311.524521
 20
58.143109
 30
0.0
 11
317.403529
 21
95.592238
 31
0.0
  0
LINE
  5
BF
  8
1
  6
CONTINUOUS
 62
     7
 10
279.524521
 20
51.143109
 30
0.0
 11
279.524521
 21
62.852978
 31
0.0
  0
LINE
  5
C0
  8
1
  6
CONTINUOUS
 62
     7
 10
282.140076
 20
72.741408
 30
0.0
 11
298.832298
 21
102.087324
 31
0.0
  0
LINE
  5
C1
  8
1
  6
CENTER
 62
     2
 10
295.524521
 20
59.710643
 30
0.0
 11
295.524521
 21
49.822956
 31
0.0
  0
LINE
  5
C2
  8
1
  6
CONTINUOUS
 62
     7
 10
311.524521
 20
51.143109
 30
0.0
 11
279.524521
 21
51.143109
 31
0.0
  0
ARC
  5
C3
  8
1
  6
HIDDEN
 62
     4
 10
273.330397
 20
79.143109
 30
0.0
 40
11.0
 50
320.421652
 51
330.15267
  0
LINE
  5
C4
  8
1
  6
CONTINUOUS
 62
     7
 10
279.524521
 20
58.143109
 30
0.0
 11
311.524521
 21
58.143109
 31
0.0
  0
LINE
  5
C5
  8
1
  6
CONTINUOUS
 62
     7
 10
311.524521
 20
51.143109
 30
0.0
 11
311.524521
 21
58.143109
 31
0.0
  0
ARC
  5
C6
  8
1
  6
CONTINUOUS
 62
     7
 10
307.524521
 20
145.576609
 30
0.0
 40
1.15
 50
231.50005
 51
308.49995
  0
LINE
  5
C7
  8
1
  6
HIDDEN
 62
     4
 10
301.874521
 20
201.826609
 30
0.0
 11
302.224521
 21
201.326609
 31
0.0
  0
LINE
  5
C8
  8
1
  6
HIDDEN
 62
     4
 10
307.524521
 20
93.572395
 30
0.0
 11
307.524521
 21
100.248937
 31
0.0
  0
LINE
  5
C9
  8
1
  6
HIDDEN
 62
     4
 10
301.823024
 20
89.29563
 30
0.0
 11
301.823024
 21
89.29563
 31
0.0
  0
LINE
  5
CA
  8
1
  6
CONTINUOUS
 62
     7
 10
202.064968
 20
51.143109
 30
0.0
 11
97.524521
 21
51.143109
 31
0.0
  0
LINE
  5
CB
  8
1
  6
HIDDEN
 62
     4
 10
298.674442
 20
93.172455
 30
0.0
 11
301.969996
 21
95.86356
 31
0.0
  0
ARC
  5
CC
  8
1
  6
HIDDEN
 62
     4
 10
307.524521
 20
97.143109
 30
0.0
 40
9.7
 50
204.163744
 51
150.15267
  0
LINE
  5
CD
  8
1
  6
CONTINUOUS
 62
     7
 10
202.064968
 20
55.143109
 30
0.0
 11
97.524521
 21
55.143109
 31
0.0
  0
LINE
  5
CE
  8
1
  6
CENTER
 62
     2
 10
185.524521
 20
57.232014
 30
0.0
 11
185.524521
 21
47.602282
 31
0.0
  0
LINE
  5
CF
  8
1
  6
HIDDEN
 62
     4
 10
282.871298
 20
73.668512
 30
0.0
 11
299.111181
 21
101.970708
 31
0.0
  0
LINE
  5
D0
  8
1
  6
HIDDEN
 62
     4
 10
286.340717
 20
71.67775
 30
0.0
 11
302.5806
 21
99.979946
 31
0.0
  0
ARC
  5
D1
  8
1
  6
CONTINUOUS
 62
     7
 10
227.02099
 20
53.143109
 30
0.0
 40
20.0
 50
90.0
 51
130.0
  0
ARC
  5
D2
  8
1
  6
CONTINUOUS
 62
     7
 10
202.058776
 20
66.137914
 30
0.0
 40
6.0
 50
271.769763
 51
310.0
  0
ARC
  5
D3
  8
1
  6
CONTINUOUS
 62
     7
 10
202.064968
 20
66.143109
 30
0.0
 40
11.0
 50
270.0
 51
310.0
  0
ARC
  5
D4
  8
1
  6
CONTINUOUS
 62
     7
 10
227.02099
 20
53.143109
 30
0.0
 40
11.0
 50
90.0
 51
130.0
  0
ARC
  5
D5
  8
1
  6
CONTINUOUS
 62
     7
 10
227.02099
 20
53.143109
 30
0.0
 40
15.0
 50
90.0
 51
130.0
  0
ARC
  5
D6
  8
1
  6
CONTINUOUS
 62
     7
 10
202.064968
 20
66.143109
 30
0.0
 40
15.0
 50
270.0
 51
310.0
  0
LINE
  5
D7
  8
1
  6
CONTINUOUS
 62
     7
 10
282.368566
 20
73.143109
 30
0.0
 11
227.02099
 21
73.143109
 31
0.0
  0
LINE
  5
D8
  8
1
  6
CONTINUOUS
 62
     4
 10
147.524521
 20
54.429861
 30
0.0
 11
147.524521
 21
51.723452
 31
0.0
  0
LINE
  5
D9
  8
1
  6
CONTINUOUS
 62
     7
 10
214.165238
 20
68.463998
 30
0.0
 11
205.915502
 21
61.541647
 31
0.0
  0
POLYLINE
  5
DA
  8
1
  6
HIDDEN
 62
     4
 66
     1
 10
0.0
 20
0.0
 30
0.0
  0
VERTEX
  5
DB
  8
1
 62
     4
 10
296.208193
 20
88.874379
 30
0.0
  0
VERTEX
  5
DC
  8
1
 62
     4
 10
296.669266
 20
88.990481
 30
0.0
 42
-0.001254
  0
VERTEX
  5
DD
  8
1
 62
     4
 10
297.593035
 20
89.20342
 30
0.0
 42
-0.006326
  0
VERTEX
  5
DE
  8
1
 62
     4
 10
298.521678
 20
89.358562
 30
0.0
 42
-0.011546
  0
VERTEX
  5
DF
  8
1
 62
     4
 10
299.458031
 20
89.42227
 30
0.0
 42
-0.012012
  0
VERTEX
  5
E0
  8
1
 62
     4
 10
300.401268
 20
89.404346
 30
0.0
 42
-0.007547
  0
VERTEX
  5
E1
  8
1
 62
     4
 10
301.348645
 20
89.337324
 30
0.0
 42
-0.003195
  0
VERTEX
  5
E2
  8
1
 62
     4
 10
301.823024
 20
89.29563
 30
0.0
  0
VERTEX
  5
E3
  8
1
 62
     4
 10
301.823024
 20
89.29563
 30
0.0
  0
VERTEX
  5
E4
  8
1
 62
     4
 10
301.823024
 20
89.29563
 30
0.0
  0
VERTEX
  5
E5
  8
1
 62
     4
 10
301.823024
 20
89.29563
 30
0.0
  0
VERTEX
  5
E6
  8
1
 62
     4
 10
301.823024
 20
89.29563
 30
0.0
  0
VERTEX
  5
E7
  8
1
 62
     4
 10
301.823024
 20
89.29563
 30
0.0
  0
VERTEX
  5
E8
  8
1
 62
     4
 10
301.823024
 20
89.29563
 30
0.0
  0
VERTEX
  5
E9
  8
1
 62
     4
 10
301.823024
 20
89.29563
 30
0.0
  0
VERTEX
  5
EA
  8
1
 62
     4
 10
301.823024
 20
89.29563
 30
0.0
  0
VERTEX
  5
EB
  8
1
 62
     4
 10
301.823024
 20
89.29563
 30
0.0
  0
VERTEX
  5
EC
  8
1
 62
     4
 10
301.823024
 20
89.29563
 30
0.0
  0
VERTEX
  5
ED
  8
1
 62
     4
 10
301.823024
 20
89.29563
 30
0.0
  0
VERTEX
  5
EE
  8
1
 62
     4
 10
301.823024
 20
89.29563
 30
0.0
  0
VERTEX
  5
EF
  8
1
 62
     4
 10
301.823024
 20
89.29563
 30
0.0
  0
VERTEX
  5
F0
  8
1
 62
     4
 10
301.823024
 20
89.29563
 30
0.0
  0
VERTEX
  5
F1
  8
1
 62
     4
 10
301.823024
 20
89.29563
 30
0.0
  0
VERTEX
  5
F2
  8
1
 62
     4
 10
301.823024
 20
89.29563
 30
0.0
  0
VERTEX
  5
F3
  8
1
 62
     4
 10
301.823024
 20
89.29563
 30
0.0
  0
VERTEX
  5
F4
  8
1
 62
     4
 10
301.823024
 20
89.29563
 30
0.0
  0
VERTEX
  5
F5
  8
1
 62
     4
 10
301.823024
 20
89.29563
 30
0.0
  0
VERTEX
  5
F6
  8
1
 62
     4
 10
301.823024
 20
89.29563
 30
0.0
  0
VERTEX
  5
F7
  8
1
 62
     4
 10
301.823024
 20
89.29563
 30
0.0
  0
VERTEX
  5
F8
  8
1
 62
     4
 10
301.823024
 20
89.29563
 30
0.0
  0
VERTEX
  5
F9
  8
1
 62
     4
 10
301.823024
 20
89.29563
 30
0.0
  0
VERTEX
  5
FA
  8
1
 62
     4
 10
301.823024
 20
89.29563
 30
0.0
  0
VERTEX
  5
FB
  8
1
 62
     4
 10
301.823024
 20
89.29563
 30
0.0
  0
VERTEX
  5
FC
  8
1
 62
     4
 10
301.823024
 20
89.29563
 30
0.0
  0
VERTEX
  5
FD
  8
1
 62
     4
 10
301.823024
 20
89.29563
 30
0.0
  0
VERTEX
  5
FE
  8
1
 62
     4
 10
301.823024
 20
89.29563
 30
0.0
  0
VERTEX
  5
FF
  8
1
 62
     4
 10
301.823024
 20
89.29563
 30
0.0
  0
VERTEX
  5
100
  8
1
 62
     4
 10
301.823024
 20
89.29563
 30
0.0
  0
VERTEX
  5
101
  8
1
 62
     4
 10
301.823024
 20
89.29563
 30
0.0
  0
SEQEND
  5
102
  8
1
 62
     4
  0
ARC
  5
103
  8
1
  6
HIDDEN
 62
     4
 10
307.524521
 20
97.143109
 30
0.0
 40
5.7
 50
192.972438
 51
150.15267
  0
ARC
  5
104
  8
1
  6
CONTINUOUS
 62
     7
 10
139.524521
 20
56.20192
 30
0.0
 40
2.0
 50
91.769763
 51
180.0
  0
LINE
  5
105
  8
1
  6
CONTINUOUS
 62
     7
 10
219.950327
 20
61.569598
 30
0.0
 11
211.706782
 21
54.652442
 31
0.0
  0
LINE
  5
106
  8
1
  6
CONTINUOUS
 62
     7
 10
217.379176
 20
64.633776
 30
0.0
 11
209.135631
 21
57.71662
 31
0.0
  0
LINE
  5
107
  8
1
  6
CONTINUOUS
 62
     7
 10
227.02099
 20
68.143109
 30
0.0
 11
273.330397
 21
68.143109
 31
0.0
  0
LINE
  5
108
  8
1
  6
CONTINUOUS
 62
     7
 10
137.524521
 20
56.20192
 30
0.0
 11
137.524521
 21
55.143109
 31
0.0
  0
LINE
  5
109
  8
1
  6
CONTINUOUS
 62
     7
 10
202.244076
 20
60.140783
 30
0.0
 11
139.462755
 21
58.200964
 31
0.0
  0
LINE
  5
10A
  8
1
  6
CONTINUOUS
 62
     7
 10
227.02099
 20
64.143109
 30
0.0
 11
273.330397
 21
64.143109
 31
0.0
  0
LINE
  5
10B
  8
1
  6
CENTER
 62
     2
 10
110.524521
 20
57.143109
 30
0.0
 11
110.524521
 21
47.557293
 31
0.0
  0
LINE
  5
10C
  8
1
  6
CENTER
 62
     2
 10
307.524521
 20
110.51091
 30
0.0
 11
307.524521
 21
84.104007
 31
0.0
  0
LINE
  5
10D
  8
1
  6
CONTINUOUS
 62
     7
 10
97.524521
 20
51.143109
 30
0.0
 11
97.524521
 21
55.143109
 31
0.0
  0
LINE
  5
10E
  8
1
  6
CENTER
 62
     2
 10
322.651352
 20
97.143109
 30
0.0
 11
295.80344
 21
97.143109
 31
0.0
  0
ARC
  5
10F
  8
1
  6
CONTINUOUS
 62
     7
 10
273.330397
 20
79.143109
 30
0.0
 40
15.0
 50
270.0
 51
295.168172
  0
ARC
  5
110
  8
1
  6
CONTINUOUS
 62
     7
 10
273.330397
 20
79.143109
 30
0.0
 40
11.0
 50
270.0
 51
320.421652
  0
LINE
  5
111
  8
1
  6
HIDDEN
 62
     4
 10
303.524521
 20
147.241445
 30
0.0
 11
303.524521
 21
227.076609
 31
0.0
  0
ARC
  5
112
  8
1
  6
CONTINUOUS
 62
     7
 10
308.424521
 20
145.576609
 30
0.0
 40
0.9
 50
270.0
 51
90.0
  0
INSERT
  5
113
  8
1
  6
CONTINUOUS
 62
     7
  2
BLK87
 10
129.524521
 20
188.755586
 30
0.0
  0
ARC
  5
114
  8
1
  6
HIDDEN
 62
     4
 10
273.330397
 20
79.143109
 30
0.0
 40
15.0
 50
295.168172
 51
330.15267
  0
ARC
  5
115
  8
1
  6
CONTINUOUS
 62
     7
 10
310.381043
 20
100.248937
 30
0.0
 40
2.856522
 50
139.500944
 51
158.65884
  0
ARC
  5
116
  8
1
  6
CONTINUOUS
 62
     7
 10
307.524521
 20
145.576609
 30
0.0
 40
1.15
 50
51.50005
 51
128.49995
  0
ARC
  5
117
  8
1
  6
CONTINUOUS
 62
     7
 10
307.524521
 20
102.688556
 30
0.0
 40
0.9
 50
319.500944
 51
220.499056
  0
LINE
  5
118
  8
1
  6
CONTINUOUS
 62
     7
 10
299.024521
 20
148.841445
 30
0.0
 11
316.024521
 21
148.841445
 31
0.0
  0
LINE
  5
119
  8
1
  6
CONTINUOUS
 62
     7
 10
308.424521
 20
144.676609
 30
0.0
 11
306.624521
 21
144.676609
 31
0.0
  0
LINE
  5
11A
  8
1
  6
CONTINUOUS
 62
     7
 10
306.624521
 20
146.476609
 30
0.0
 11
308.424521
 21
146.476609
 31
0.0
  0
ARC
  5
11B
  8
1
  6
CONTINUOUS
 62
     7
 10
306.624521
 20
145.576609
 30
0.0
 40
0.9
 50
90.0
 51
270.0
  0
LINE
  5
11C
  8
1
  6
CONTINUOUS
 62
     7
 10
293.524521
 20
156.576609
 30
0.0
 11
293.524521
 21
158.326609
 31
0.0
  0
LINE
  5
11D
  8
1
  6
CONTINUOUS
 62
     7
 10
311.524521
 20
147.241445
 30
0.0
 11
311.524521
 21
128.326609
 31
0.0
  0
LINE
  5
11E
  8
1
  6
CONTINUOUS
 62
     7
 10
299.024521
 20
147.241445
 30
0.0
 11
299.024521
 21
148.841445
 31
0.0
  0
LINE
  5
11F
  8
1
  6
HIDDEN
 62
     4
 10
311.524521
 20
231.402979
 30
0.0
 11
311.524521
 21
147.241445
 31
0.0
  0
ARC
  5
120
  8
1
  6
HIDDEN
 62
     4
 10
304.667999
 20
100.248937
 30
0.0
 40
2.856522
 50
0.0
 51
21.34116
  0
LINE
  5
121
  8
1
  6
CONTINUOUS
 62
     7
 10
293.524521
 20
218.326609
 30
0.0
 11
293.524521
 21
220.076609
 31
0.0
  0
ARC
  5
122
  8
1
  6
CONTINUOUS
 62
     7
 10
307.524521
 20
97.143109
 30
0.0
 40
6.6
 50
309.082207
 51
34.659168
  0
LINE
  5
123
  8
1
  6
CONTINUOUS
 62
     7
 10
279.524521
 20
156.576609
 30
0.0
 11
317.524521
 21
156.576609
 31
0.0
  0
LINE
  5
124
  8
1
  6
CONTINUOUS
 62
     7
 10
317.524521
 20
220.076609
 30
0.0
 11
317.524521
 21
227.076609
 31
0.0
  0
LINE
  5
125
  8
1
  6
CONTINUOUS
 62
     7
 10
279.524521
 20
149.576609
 30
0.0
 11
317.524521
 21
149.576609
 31
0.0
  0
LINE
  5
126
  8
1
  6
CONTINUOUS
 62
     7
 10
279.524521
 20
220.076609
 30
0.0
 11
317.524521
 21
220.076609
 31
0.0
  0
LINE
  5
127
  8
1
  6
CONTINUOUS
 62
     7
 10
305.524521
 20
122.326609
 30
0.0
 11
285.524521
 21
122.326609
 31
0.0
  0
LINE
  5
128
  8
1
  6
HIDDEN
 62
     4
 10
308.424521
 20
100.557114
 30
0.0
 11
308.424521
 21
93.572395
 31
0.0
  0
LINE
  5
129
  8
1
  6
CONTINUOUS
 62
     7
 10
317.524521
 20
149.576609
 30
0.0
 11
317.524521
 21
156.576609
 31
0.0
  0
LINE
  5
12A
  8
1
  6
CENTER
 62
     2
 10
285.995823
 20
136.326609
 30
0.0
 11
304.579393
 21
136.326609
 31
0.0
  0
LINE
  5
12B
  8
1
  6
CENTER
 62
     2
 10
285.758921
 20
240.326609
 30
0.0
 11
305.053199
 21
240.326609
 31
0.0
  0
ARC
  5
12C
  8
1
  6
CONTINUOUS
 62
     7
 10
307.524521
 20
102.688556
 30
0.0
 40
1.8
 50
314.216252
 51
225.783748
  0
ARC
  5
12D
  8
1
  6
HIDDEN
 62
     4
 10
305.450608
 20
100.557114
 30
0.0
 40
1.173913
 50
0.0
 51
30.592529
  0
ARC
  5
12E
  8
1
  6
CONTINUOUS
 62
     7
 10
309.598434
 20
100.557114
 30
0.0
 40
1.173913
 50
134.216252
 51
149.407471
  0
LINE
  5
12F
  8
1
  6
CONTINUOUS
 62
     7
 10
279.524521
 20
128.326609
 30
0.0
 11
279.524521
 21
158.326609
 31
0.0
  0
LINE
  5
130
  8
1
  6
CONTINUOUS
 62
     7
 10
285.524521
 20
254.326609
 30
0.0
 11
305.524521
 21
254.326609
 31
0.0
  0
LINE
  5
131
  8
1
  6
CONTINUOUS
 62
     7
 10
279.524521
 20
227.076609
 30
0.0
 11
317.524521
 21
227.076609
 31
0.0
  0
LINE
  5
132
  8
1
  6
HIDDEN
 62
     4
 10
306.624521
 20
93.572395
 30
0.0
 11
306.624521
 21
100.557114
 31
0.0
  0
ARC
  5
133
  8
1
  6
CONTINUOUS
 62
     7
 10
305.450608
 20
100.557114
 30
0.0
 40
1.173913
 50
30.592529
 51
45.783748
  0
CIRCLE
  5
134
  8
1
  6
CONTINUOUS
 62
     7
 10
307.524521
 20
97.143109
 30
0.0
 40
4.15
  0
LINE
  5
135
  8
1
  6
CONTINUOUS
 62
     7
 10
311.524521
 20
248.326609
 30
0.0
 11
311.524521
 21
231.402979
 31
0.0
  0
ARC
  5
136
  8
1
  6
CONTINUOUS
 62
     7
 10
285.524521
 20
248.326609
 30
0.0
 40
6.0
 50
90.0
 51
180.0
  0
ARC
  5
137
  8
1
  6
CONTINUOUS
 62
     7
 10
305.524521
 20
248.326609
 30
0.0
 40
6.0
 50
0.0
 51
90.0
  0
ARC
  5
138
  8
1
  6
CONTINUOUS
 62
     7
 10
305.524521
 20
128.326609
 30
0.0
 40
6.0
 50
270.0
 51
0.0
  0
ARC
  5
139
  8
1
  6
CONTINUOUS
 62
     7
 10
285.524521
 20
128.326609
 30
0.0
 40
6.0
 50
180.0
 51
270.0
  0
ARC
  5
13A
  8
1
  6
HIDDEN
 62
     4
 10
304.624521
 20
93.572395
 30
0.0
 40
2.0
 50
346.473336
 51
0.0
  0
LINE
  5
13B
  8
1
  6
CENTER
 62
     2
 10
295.524521
 20
117.17345
 30
0.0
 11
295.524521
 21
260.448716
 31
0.0
  0
ARC
  5
13C
  8
1
  6
HIDDEN
 62
     4
 10
309.598434
 20
100.557114
 30
0.0
 40
1.173913
 50
149.407471
 51
180.0
  0
ARC
  5
13D
  8
1
  6
HIDDEN
 62
     4
 10
310.381043
 20
100.248937
 30
0.0
 40
2.856522
 50
158.65884
 51
180.0
  0
ARC
  5
13E
  8
1
  6
CONTINUOUS
 62
     7
 10
304.667999
 20
100.248937
 30
0.0
 40
2.856522
 50
21.34116
 51
40.499056
  0
CIRCLE
  5
13F
  8
1
  6
CONTINUOUS
 62
     7
 10
307.524521
 20
97.143109
 30
0.0
 40
8.5
  0
ARC
  5
140
  8
1
  6
HIDDEN
 62
     4
 10
310.424521
 20
93.572395
 30
0.0
 40
2.0
 50
180.0
 51
193.526664
  0
ARC
  5
141
  8
1
  6
HIDDEN
 62
     4
 10
310.424521
 20
93.572395
 30
0.0
 40
2.9
 50
180.0
 51
191.514282
  0
ARC
  5
142
  8
1
  6
HIDDEN
 62
     4
 10
304.624521
 20
93.572395
 30
0.0
 40
2.9
 50
348.485718
 51
0.0
  0
ARC
  5
143
  8
1
  6
CONTINUOUS
 62
     7
 10
310.424521
 20
93.572395
 30
0.0
 40
2.0
 50
193.526664
 51
309.082207
  0
ARC
  5
144
  8
1
  6
CONTINUOUS
 62
     7
 10
310.424521
 20
93.572395
 30
0.0
 40
2.9
 50
191.514282
 51
309.082207
  0
LINE
  5
145
  8
1
  6
CONTINUOUS
 62
     7
 10
144.549435
 20
218.326609
 30
0.0
 11
317.224521
 21
218.326609
 31
0.0
  0
ARC
  5
146
  8
1
  6
CONTINUOUS
 62
     7
 10
144.549435
 20
203.326609
 30
0.0
 40
15.0
 50
90.0
 51
105.562599
  0
ARC
  5
147
  8
1
  6
CONTINUOUS
 62
     7
 10
144.549435
 20
173.326609
 30
0.0
 40
15.0
 50
254.437401
 51
270.0
  0
ARC
  5
148
  8
1
  6
CONTINUOUS
 62
     7
 10
107.524521
 20
178.447843
 30
0.0
 40
10.0
 50
180.0
 51
254.437401
  0
ARC
  5
149
  8
1
  6
CONTINUOUS
 62
     7
 10
107.524521
 20
198.205375
 30
0.0
 40
10.0
 50
105.562599
 51
180.0
  0
LINE
  5
14A
  8
1
  6
CONTINUOUS
 62
     7
 10
97.524521
 20
178.447843
 30
0.0
 11
97.524521
 21
198.205375
 31
0.0
  0
ARC
  5
14B
  8
1
  6
CONTINUOUS
 62
     7
 10
144.524521
 20
188.007313
 30
0.0
 40
5.0
 50
180.0
 51
266.132345
  0
ARC
  5
14C
  8
1
  6
CONTINUOUS
 62
     7
 10
307.524521
 20
97.143109
 30
0.0
 40
7.5
 50
309.082207
 51
30.029794
  0
LINE
  5
14D
  8
1
  6
CONTINUOUS
 62
     4
 10
207.524521
 20
174.913705
 30
0.0
 11
207.524521
 21
160.36289
 31
0.0
  0
LINE
  5
14E
  8
1
  6
CONTINUOUS
 62
     4
 10
207.524521
 20
216.603755
 30
0.0
 11
207.524521
 21
200.91622
 31
0.0
  0
CIRCLE
  5
14F
  8
1
  6
CONTINUOUS
 62
     7
 10
185.524521
 20
206.326609
 30
0.0
 40
4.15
  0
LINE
  5
150
  8
1
  6
CONTINUOUS
 62
     4
 10
204.725305
 20
195.153282
 30
0.0
 11
204.725305
 21
180.722091
 31
0.0
  0
LINE
  5
151
  8
1
  6
CONTINUOUS
 62
     4
 10
223.416093
 20
174.949614
 30
0.0
 11
223.416093
 21
161.034133
 31
0.0
  0
LINE
  5
152
  8
1
  6
CENTER
 62
     2
 10
185.524521
 20
177.329617
 30
0.0
 11
185.524521
 21
165.451663
 31
0.0
  0
LINE
  5
153
  8
1
  6
CENTER
 62
     2
 10
178.531291
 20
170.326609
 30
0.0
 11
191.795285
 21
170.326609
 31
0.0
  0
LINE
  5
154
  8
1
  6
CENTER
 62
     2
 10
185.524521
 20
213.226812
 30
0.0
 11
185.524521
 21
198.577571
 31
0.0
  0
LINE
  5
155
  8
1
  6
CENTER
 62
     2
 10
178.666941
 20
206.326609
 30
0.0
 11
191.904337
 21
206.326609
 31
0.0
  0
LINE
  5
156
  8
1
  6
CENTER
 62
     2
 10
110.524521
 20
196.702445
 30
0.0
 11
110.524521
 21
181.551549
 31
0.0
  0
CIRCLE
  5
157
  8
1
  6
CONTINUOUS
 62
     7
 10
110.524521
 20
188.326609
 30
0.0
 40
4.15
  0
CIRCLE
  5
158
  8
1
  6
CONTINUOUS
 62
     7
 10
185.524521
 20
170.326609
 30
0.0
 40
4.15
  0
LINE
  5
159
  8
1
  6
CENTER
 62
     2
 10
91.82315
 20
188.326609
 30
0.0
 11
319.937338
 21
188.326609
 31
0.0
  0
LINE
  5
15A
  8
1
  6
CENTER
 62
     2
 10
307.524521
 20
140.339162
 30
0.0
 11
307.524521
 21
236.541555
 31
0.0
  0
ARC
  5
15B
  8
1
  6
CONTINUOUS
 62
     7
 10
144.524521
 20
188.645904
 30
0.0
 40
5.0
 50
93.867655
 51
180.0
  0
LINE
  5
15C
  8
1
  6
CONTINUOUS
 62
     7
 10
317.224521
 20
158.326609
 30
0.0
 11
144.549435
 21
158.326609
 31
0.0
  0
LINE
  5
15D
  8
1
  6
CONTINUOUS
 62
     7
 10
139.524521
 20
188.645904
 30
0.0
 11
139.524521
 21
188.007313
 31
0.0
  0
LINE
  5
15E
  8
1
  6
CONTINUOUS
 62
     7
 10
144.187261
 20
183.018707
 30
0.0
 11
228.382385
 21
177.326609
 31
0.0
  0
LINE
  5
15F
  8
1
  6
CONTINUOUS
 62
     7
 10
228.382385
 20
177.326609
 30
0.0
 11
271.56982
 21
177.326609
 31
0.0
  0
LINE
  5
160
  8
1
  6
CONTINUOUS
 62
     7
 10
271.56982
 20
199.326609
 30
0.0
 11
228.382385
 21
199.326609
 31
0.0
  0
LINE
  5
161
  8
1
  6
CONTINUOUS
 62
     7
 10
228.382385
 20
199.326609
 30
0.0
 11
144.187261
 21
193.634511
 31
0.0
  0
LINE
  5
162
  8
1
  6
CONTINUOUS
 62
     7
 10
317.224521
 20
218.326609
 30
0.0
 11
317.224521
 21
158.326609
 31
0.0
  0
LINE
  5
163
  8
1
  6
CONTINUOUS
 62
     4
 10
223.416093
 20
216.374554
 30
0.0
 11
223.416093
 21
202.36888
 31
0.0
  0
LINE
  5
164
  8
1
  6
CONTINUOUS
 62
     7
 10
316.024521
 20
147.241445
 30
0.0
 11
299.024521
 21
147.241445
 31
0.0
  0
LINE
  5
165
  8
1
  6
CONTINUOUS
 62
     4
 10
220.140361
 20
195.784647
 30
0.0
 11
220.140361
 21
180.090726
 31
0.0
  0
LINE
  5
166
  8
1
  6
CONTINUOUS
 62
     7
 10
316.024521
 20
148.841445
 30
0.0
 11
316.024521
 21
147.241445
 31
0.0
  0
ARC
  5
167
  8
1
  6
CONTINUOUS
 62
     7
 10
271.56982
 20
188.326609
 30
0.0
 40
11.0
 50
270.0
 51
90.0
  0
LINE
  5
168
  8
1
  6
CONTINUOUS
 62
     7
 10
140.525091
 20
158.876617
 30
0.0
 11
104.841625
 21
168.814515
 31
0.0
  0
LINE
  5
169
  8
1
  6
CONTINUOUS
 62
     7
 10
104.841625
 20
207.838703
 30
0.0
 11
140.525091
 21
217.776601
 31
0.0
  0
LINE
  5
16A
  8
1
  6
CONTINUOUS
 62
     7
 10
279.524521
 20
218.326609
 30
0.0
 11
279.524521
 21
248.326609
 31
0.0
  0
LINE
  5
16B
  8
1
  6
HIDDEN
 62
     4
 10
279.524521
 20
158.326609
 30
0.0
 11
279.524521
 21
218.326609
 31
0.0
  0
TEXT
  5
16C
  8
1
  6
CONTINUOUS
 62
     1
 10
350.0
 20
20.0
 30
0.0
 40
5.0
  1
FB-1813-1
 41
0.913043
 72
     5
 11
385.0
 21
20.0
 31
0.0
  0
ENDSEC
  0
EOF

