  0
SECTION
  2
HEADER
  9
$ACADVER
  1
AC1009
  9
$INSBASE
 10
0.000000000
 20
0.000000000
  9
$EXTMIN
 10
-1926.514259749
 20
-3651.219202495
  9
$EXTMAX
 10
3717.531259096
 20
2812.766223497
  9
$LIMMIN
 10
-1926.514259749
 20
-3651.219202495
  9
$LIMMAX
 10
3717.531259096
 20
2812.766223497
  9
$SNAPBASE
 10
0.000000000
 20
0.000000000
  9
$SNAPANG
 50
0.000000000
  9
$SNAPSTYLE
 70
0
  9
$GRIDMODE
 70
0
  9
$GRIDUNIT
 10
0.000000000
 20
0.000000000
  9
$DIMEXO
 40
0.500000000
  9
$DIMDLI
 40
8.000000000
  9
$DIMDLE
 40
0.000000000
  9
$DIMEXE
 40
1.000000000
  9
$DIMTIH
 70
1
  9
$DIMTOH
 70
1
  9
$DIMTAD
 70
2
  9
$DIMZIN
 70
0
  9
$FILLETRAD
 40
1.000000000
  9
$CHAMFERA
 40
1.000000000
  9
$CHAMFERB
 40
1.000000000
  9
$TEXTSTYLE
  7
STANDARD
  9
$TDCREATE
 40
2455082.445694444
  9
$TDUPDATE
 40
2455082.445694444
  9
$ANGBASE
 50
0.000000000
  9
$ANGDIR
 70
0
  0
ENDSEC
  0
SECTION
  2
TABLES
  0
TABLE
  2
LTYPE
 70
7
  0
LTYPE
  2
CENTER
 70
64
  3
___ _ ___ _ __
 72
65
 73
4
 40
13.000000000
 49
8.500000000
 49
-1.500000000
 49
1.500000000
 49
-1.500000000
  0
LTYPE
  2
CONTINUOUS
 70
64
  3
______________
 72
65
 73
0
 40
0.000000000
  0
LTYPE
  2
DIVIDE
 70
64
  3
___ . . ___ . 
 72
65
 73
6
 40
12.999999523
 49
5.199999809
 49
-2.599999905
 49
0.000000000
 49
-2.599999905
 49
0.000000000
 49
-2.599999905
  0
LTYPE
  2
HIDDEN
 70
64
  3
__ __ __ __ __
 72
65
 73
2
 40
3.000000000
 49
2.000000000
 49
-1.000000000
  0
LTYPE
  2
HIDDEN2
 70
64
  3
_ _ _ _ _ _ _ 
 72
65
 73
2
 40
2.000000000
 49
1.399999976
 49
-0.600000024
  0
LTYPE
  2
PHANTOM
 70
64
  3
___ _ _ ___ _ 
 72
65
 73
6
 40
12.999999762
 49
4.000000000
 49
-1.799999952
 49
1.799999952
 49
-1.799999952
 49
1.799999952
 49
-1.799999952
  0
LTYPE
  2
PHANTOM2
 70
64
  3
__ _ _ __ _ _ 
 72
65
 73
6
 40
9.999999881
 49
3.000000000
 49
-1.399999976
 49
1.399999976
 49
-1.399999976
 49
1.399999976
 49
-1.399999976
  0
ENDTAB
  0
TABLE
  2
LAYER
 70
3
  0
LAYER
  2
1
 70
0
 62
7
  6
CONTINUOUS
999
Comment
  0
LAYER
  2
2
 70
0
 62
7
  6
CONTINUOUS
999
15
  0
LAYER
  2
4
 70
0
 62
7
  6
CONTINUOUS
999
Comment
  0
LAYER
  2
_CONSTR
 70
0
 62
5
  6
CONTINUOUS
  0
ENDTAB
  0
TABLE
  2
STYLE
 70
1
  0
STYLE
  2
STANDARD
 70
64
 40
0.000000000
 42
3.200000000
 41
0.600000000
 50
0.000000000
 71
0
  3
TXT
  4
BIGFONT
  0
STYLE
  2
VISION_STANDARD
 70
64
 40
0.000000000
 42
3.200000000
 41
0.600000000
 50
0.000000000
 71
0
  3
TXT
  4
BIGFONT
  0
ENDTAB
  0
TABLE
  2
VPORT
 70
2
  0
VPORT
  2
*ACTIVE
 70
0
 10
0.000000000
 20
0.000000000
 11
1.000000000
 21
1.000000000
 12
895.508499674
 22
-419.226489499
 13
0.000000000
 23
0.000000000
 14
1.000000000
 24
1.000000000
 15
0.000000000
 25
0.000000000
 16
0.000000000
 26
0.000000000
 36
1.000000000
 17
0.000000000
 27
0.000000000
 37
0.000000000
 40
6463.985425992
 41
0.873152575
 42
50.000000000
 43
0.000000000
 44
0.000000000
 50
0.000000000
 51
0.000000000
 71
0
 72
100
 73
1
 74
1
 75
0
 76
0
 77
0
 78
0
  0
ENDTAB
  0
TABLE
  2
VIEW
 70
0
  0
ENDTAB
  0
TABLE
  2
DIMSTYLE
 70
1
  0
DIMSTYLE
  2
STANDARD
 70
0
  3

  4

  5

  6

  7

 40
1.000000000
 41
2.500000000
 42
0.500000000
 43
8.000000000
 44
1.000000000
 45
0.000000000
 46
0.000000000
 47
0.000000000
 48
0.000000000
140
3.200000000
141
2.500000000
142
0.000000000
143
0.039400000
144
1.000000000
145
0.000000000
146
1.000000000
147
0.625000000
 71
0
 72
0
 73
1
 74
1
 75
0
 76
0
 77
2
 78
8
170
0
171
2
172
0
173
0
174
0
175
0
176
0
177
0
178
0
  0
ENDTAB
  0
ENDSEC
  0
SECTION
  2
BLOCKS
  0
BLOCK
  8
0
  2
blk379
 70
64
 10
0.000000000
 20
0.000000000
  3
blk379
  0
ARC
  8
1
 62
7
  6
CONTINUOUS
 10
0.000000000
 20
0.000000000
 40
1.000000000
 50
270.000000000
 51
330.000000000
  0
ENDBLK
  8
0
  0
BLOCK
  8
0
  2
blk414
 70
64
 10
0.000000000
 20
0.000000000
  3
blk414
  0
ARC
  8
2
 62
5
  6
PHANTOM2
 10
0.000000000
 20
0.000000000
 40
1.000000000
 50
38.967716670
 51
41.503133960
  0
ENDBLK
  8
0
  0
BLOCK
  8
0
  2
blk466
 70
64
 10
0.000000000
 20
0.000000000
  3
blk466
  0
ARC
  8
1
 62
7
  6
CONTINUOUS
 10
0.000000000
 20
0.000000000
 40
1.000000000
 50
63.826607159
 51
423.826585154
  0
ENDBLK
  8
0
  0
BLOCK
  8
0
  2
blk488
 70
64
 10
0.000000000
 20
0.000000000
  3
blk488
  0
ARC
  8
1
 62
4
  6
CONTINUOUS
 10
0.000000000
 20
0.000000000
 40
1.000000000
 50
64.646743049
 51
424.646704631
  0
ENDBLK
  8
0
  0
BLOCK
  8
0
  2
blk500
 70
64
 10
0.000000000
 20
0.000000000
  3
blk500
  0
CIRCLE
  8
1
 62
4
  6
HIDDEN
 10
0.000000000
 20
0.000000000
 40
1.000000000
  0
ENDBLK
  8
0
  0
BLOCK
  8
0
  2
blk503
 70
64
 10
0.000000000
 20
0.000000000
  3
blk503
  0
ARC
  8
1
 62
5
  6
PHANTOM
 10
0.000000000
 20
0.000000000
 40
1.000000000
 50
171.872031217
 51
278.132235855
  0
ENDBLK
  8
0
  0
BLOCK
  8
0
  2
blk511
 70
64
 10
0.000000000
 20
0.000000000
  3
blk511
  0
ARC
  8
1
 62
5
  6
PHANTOM
 10
0.000000000
 20
0.000000000
 40
1.000000000
 50
351.872031217
 51
458.132235855
  0
ENDBLK
  8
0
  0
BLOCK
  8
0
  2
blk512
 70
64
 10
0.000000000
 20
0.000000000
  3
blk512
  0
ARC
  8
1
 62
5
  6
PHANTOM
 10
0.000000000
 20
0.000000000
 40
1.000000000
 50
171.872031217
 51
278.132235855
  0
ENDBLK
  8
0
  0
ENDSEC
  0
SECTION
  2
ENTITIES
  0
ARC
  8
1
 62
4
  6
HIDDEN2
 10
72.822866822
 20
60.817515361
 40
7.900000000
 50
5.734752086
 51
264.265247914
  0
LINE
  8
2
 62
2
  6
CENTER
 10
133.822866822
 20
330.317515361
 11
153.822866822
 21
330.317515361
  0
LINE
  8
2
 62
2
  6
CENTER
 10
143.822866822
 20
320.317515361
 11
143.822866822
 21
340.317515361
  0
LINE
  8
2
 62
2
  6
CENTER
 10
239.822866822
 20
342.317515361
 11
259.822866822
 21
342.317515361
  0
LINE
  8
2
 62
2
  6
CENTER
 10
249.822866822
 20
332.317515361
 11
249.822866822
 21
352.317515361
  0
LINE
  8
2
 62
2
  6
CENTER
 10
239.822866822
 20
442.317515361
 11
259.822866822
 21
442.317515361
  0
LINE
  8
2
 62
2
  6
CENTER
 10
249.822866822
 20
432.317515361
 11
249.822866822
 21
452.317515361
  0
LINE
  8
2
 62
2
  6
CENTER
 10
37.822866822
 20
432.317515361
 11
37.822866822
 21
452.317515361
  0
LINE
  8
2
 62
2
  6
CENTER
 10
27.822866822
 20
442.317515361
 11
47.822866822
 21
442.317515361
  0
LINE
  8
2
 62
2
  6
CENTER
 10
27.822866822
 20
342.317515361
 11
47.822866822
 21
342.317515361
  0
LINE
  8
2
 62
2
  6
CENTER
 10
37.822866822
 20
332.317515361
 11
37.822866822
 21
352.317515361
  0
LINE
  8
2
 62
4
  6
CONTINUOUS
 10
139.072866822
 20
387.317515361
 11
139.072866822
 21
395.817515361
  0
LINE
  8
2
 62
4
  6
CONTINUOUS
 10
139.072866822
 20
387.317515361
 11
136.572866822
 21
387.317515361
  0
LINE
  8
2
 62
4
  6
CONTINUOUS
 10
136.572866822
 20
387.317515361
 11
136.572866822
 21
395.817515361
  0
LINE
  8
2
 62
4
  6
CONTINUOUS
 10
139.072866822
 20
395.817515361
 11
136.572866822
 21
395.817515361
  0
LINE
  8
1
 62
7
  6
CONTINUOUS
 10
678.822866822
 20
445.817515361
 11
493.822866822
 21
445.817515361
  0
POLYLINE
  8
1
 62
5
  6
PHANTOM2
 66
1
  0
VERTEX
  8
1
 10
59.222866822
 20
300.065205812
  0
VERTEX
  8
1
 10
60.918044516
 20
300.602278334
 42
-0.003661589
  0
VERTEX
  8
1
 10
64.312172937
 20
301.459056136
 42
-0.019149583
  0
VERTEX
  8
1
 10
67.717596785
 20
301.664973892
 42
-0.035134179
  0
VERTEX
  8
1
 10
71.136264724
 20
301.078904110
 42
-0.014657169
  0
VERTEX
  8
1
 10
74.557405215
 20
300.226946672
 42
0.006770791
  0
VERTEX
  8
1
 10
77.968480623
 20
299.727840507
 42
0.029618231
  0
VERTEX
  8
1
 10
81.359913950
 20
300.062110986
 42
0.026448411
  0
VERTEX
  8
1
 10
84.736829143
 20
301.023988766
 42
0.010646929
  0
VERTEX
  8
1
 10
86.422866822
 20
301.609539563
  0
VERTEX
  8
1
 10
86.422866822
 20
301.609539563
  0
VERTEX
  8
1
 10
86.422866822
 20
301.609539563
  0
VERTEX
  8
1
 10
86.422866822
 20
301.609539563
  0
VERTEX
  8
1
 10
86.422866822
 20
301.609539563
  0
VERTEX
  8
1
 10
86.422866822
 20
301.609539563
  0
VERTEX
  8
1
 10
86.422866822
 20
301.609539563
  0
VERTEX
  8
1
 10
86.422866822
 20
301.609539563
  0
VERTEX
  8
1
 10
86.422866822
 20
301.609539563
  0
VERTEX
  8
1
 10
86.422866822
 20
301.609539563
  0
VERTEX
  8
1
 10
86.422866822
 20
301.609539563
  0
VERTEX
  8
1
 10
86.422866822
 20
301.609539563
  0
VERTEX
  8
1
 10
86.422866822
 20
301.609539563
  0
VERTEX
  8
1
 10
86.422866822
 20
301.609539563
  0
VERTEX
  8
1
 10
86.422866822
 20
301.609539563
  0
VERTEX
  8
1
 10
86.422866822
 20
301.609539563
  0
VERTEX
  8
1
 10
86.422866822
 20
301.609539563
  0
VERTEX
  8
1
 10
86.422866822
 20
301.609539563
  0
VERTEX
  8
1
 10
86.422866822
 20
301.609539563
  0
VERTEX
  8
1
 10
86.422866822
 20
301.609539563
  0
VERTEX
  8
1
 10
86.422866822
 20
301.609539563
  0
VERTEX
  8
1
 10
86.422866822
 20
301.609539563
  0
VERTEX
  8
1
 10
86.422866822
 20
301.609539563
  0
VERTEX
  8
1
 10
86.422866822
 20
301.609539563
  0
VERTEX
  8
1
 10
86.422866822
 20
301.609539563
  0
VERTEX
  8
1
 10
86.422866822
 20
301.609539563
  0
VERTEX
  8
1
 10
86.422866822
 20
301.609539563
  0
VERTEX
  8
1
 10
86.422866822
 20
301.609539563
  0
VERTEX
  8
1
 10
86.422866822
 20
301.609539563
  0
VERTEX
  8
1
 10
86.422866822
 20
301.609539563
  0
VERTEX
  8
1
 10
86.422866822
 20
301.609539563
  0
VERTEX
  8
1
 10
86.422866822
 20
301.609539563
  0
SEQEND
  8
1
  0
ARC
  8
1
 62
7
  6
CONTINUOUS
 10
134.322866822
 20
416.567515361
 40
0.500000000
 50
90.000000000
 51
180.000000000
  0
ARC
  8
1
 62
7
  6
CONTINUOUS
 10
134.322866822
 20
413.067515361
 40
0.500000000
 50
180.000000000
 51
270.000000000
  0
ARC
  8
1
 62
7
  6
CONTINUOUS
 10
147.322866822
 20
413.067515361
 40
0.500000000
 50
270.000000000
 51
0.000000000
  0
ARC
  8
1
 62
7
  6
CONTINUOUS
 10
147.322866822
 20
416.567515361
 40
0.500000000
 50
0.000000000
 51
90.000000000
  0
LINE
  8
1
 62
7
  6
CONTINUOUS
 10
134.322866822
 20
412.567515361
 11
147.322866822
 21
412.567515361
  0
LINE
  8
1
 62
7
  6
CONTINUOUS
 10
134.322866822
 20
417.067515361
 11
147.322866822
 21
417.067515361
  0
LINE
  8
1
 62
7
  6
CONTINUOUS
 10
147.822866822
 20
413.067515361
 11
147.822866822
 21
416.567515361
  0
LINE
  8
1
 62
7
  6
CONTINUOUS
 10
133.822866822
 20
413.067515361
 11
133.822866822
 21
416.567515361
  0
LINE
  8
2
 62
2
  6
CENTER
 10
72.822866822
 20
217.317515361
 11
72.822866822
 21
476.317515361
  0
LINE
  8
2
 62
2
  6
CENTER
 10
302.822866822
 20
392.317515361
 11
357.599201142
 21
392.317515361
  0
LINE
  8
1
 62
2
  6
CENTER
 10
143.822866822
 20
93.446249671
 11
143.822866822
 21
72.317515361
  0
LINE
  8
1
 62
2
  6
CENTER
 10
249.822866822
 20
87.931138419
 11
249.822866822
 21
74.317515361
  0
LINE
  8
1
 62
2
  6
CENTER
 10
37.822866822
 20
74.317515361
 11
37.822866822
 21
87.931138419
  0
ARC
  8
2
 62
4
  6
CONTINUOUS
 10
113.822866822
 20
376.317515361
 40
1.000000000
 50
180.000000000
 51
270.000000000
  0
ARC
  8
2
 62
4
  6
CONTINUOUS
 10
119.822866822
 20
376.317515361
 40
1.000000000
 50
270.000000000
 51
0.000000000
  0
LINE
  8
2
 62
4
  6
CONTINUOUS
 10
113.822866822
 20
375.317515361
 11
119.822866822
 21
375.317515361
  0
LINE
  8
1
 62
5
  6
PHANTOM2
 10
62.022866822
 20
298.552723264
 11
62.022866822
 21
252.817515361
  0
LINE
  8
1
 62
5
  6
PHANTOM2
 10
59.222866822
 20
300.065205812
 11
59.222866822
 21
321.317515361
  0
CIRCLE
  8
1
 62
7
  6
CONTINUOUS
 10
143.822866822
 20
330.317515361
 40
3.100000000
  0
ARC
  8
2
 62
4
  6
CONTINUOUS
 10
119.822866822
 20
408.317515361
 40
1.000000000
 50
0.000000000
 51
90.000000000
  0
ARC
  8
2
 62
4
  6
CONTINUOUS
 10
113.822866822
 20
408.317515361
 40
1.000000000
 50
90.000000000
 51
180.000000000
  0
CIRCLE
  8
1
 62
7
  6
CONTINUOUS
 10
249.822866822
 20
342.317515361
 40
3.100000000
  0
LINE
  8
2
 62
4
  6
CONTINUOUS
 10
113.822866822
 20
409.317515361
 11
119.822866822
 21
409.317515361
  0
LINE
  8
2
 62
4
  6
CONTINUOUS
 10
120.822866822
 20
376.317515361
 11
120.822866822
 21
408.317515361
  0
LINE
  8
2
 62
4
  6
CONTINUOUS
 10
112.822866822
 20
376.317515361
 11
112.822866822
 21
408.317515361
  0
LINE
  8
2
 62
7
  6
CONTINUOUS
 10
136.378221852
 20
416.817515361
 11
136.378221852
 21
412.817515361
  0
LINE
  8
2
 62
7
  6
CONTINUOUS
 10
133.889854122
 20
412.817515361
 11
146.822866822
 21
412.817515361
  0
LINE
  8
2
 62
7
  6
CONTINUOUS
 10
146.822866822
 20
412.817515361
 11
146.822866822
 21
416.817515361
  0
LINE
  8
2
 62
7
  6
CONTINUOUS
 10
133.889854122
 20
416.817515361
 11
146.822866822
 21
416.817515361
  0
LINE
  8
1
 62
5
  6
PHANTOM2
 10
83.622866822
 20
300.450706479
 11
83.622866822
 21
321.317515361
  0
LINE
  8
2
 62
2
  6
CENTER
 10
334.099201142
 20
309.161048800
 11
334.099201142
 21
474.920649476
  0
LINE
  8
1
 62
7
  6
CONTINUOUS
 10
350.099715155
 20
360.778249940
 11
322.599201142
 21
360.058123631
  0
LINE
  8
1
 62
7
  6
CONTINUOUS
 10
350.099715155
 20
363.856780782
 11
322.599201142
 21
364.576907081
  0
LINE
  8
1
 62
7
  6
CONTINUOUS
 10
316.599201142
 20
321.317515361
 11
316.599201142
 21
339.317515361
  0
ARC
  8
1
 62
7
  6
CONTINUOUS
 10
346.599201142
 20
344.317515361
 40
5.000000000
 50
270.000000000
 51
0.000000000
  0
LINE
  8
1
 62
7
  6
CONTINUOUS
 10
316.599201142
 20
339.317515361
 11
326.199201142
 21
339.317515361
  0
LINE
  8
1
 62
7
  6
CONTINUOUS
 10
351.599201142
 20
344.317515361
 11
351.599201142
 21
440.317515361
  0
ARC
  8
1
 62
7
  6
CONTINUOUS
 10
346.599201142
 20
440.317515361
 40
5.000000000
 50
0.000000000
 51
90.000000000
  0
LINE
  8
1
 62
7
  6
CONTINUOUS
 10
316.599201142
 20
445.317515361
 11
346.599201142
 21
445.317515361
  0
ARC
  8
1
 62
7
  6
CONTINUOUS
 10
310.822866822
 20
461.317515361
 40
2.000000000
 50
90.000000000
 51
180.000000000
  0
ARC
  8
1
 62
7
  6
CONTINUOUS
 10
310.822866822
 20
323.317515361
 40
2.000000000
 50
180.000000000
 51
270.000000000
  0
LINE
  8
1
 62
7
  6
CONTINUOUS
 10
310.822866822
 20
321.317515361
 11
316.599201142
 21
321.317515361
  0
LINE
  8
1
 62
7
  6
CONTINUOUS
 10
308.822866822
 20
323.317515361
 11
308.822866822
 21
461.317515361
  0
LINE
  8
1
 62
7
  6
CONTINUOUS
 10
350.099715155
 20
423.856780782
 11
322.599201142
 21
424.576907081
  0
LINE
  8
1
 62
7
  6
CONTINUOUS
 10
350.099715155
 20
420.778249940
 11
322.599201142
 21
420.058123631
  0
LINE
  8
1
 62
7
  6
CONTINUOUS
 10
310.822866822
 20
463.317515361
 11
316.599201142
 21
463.317515361
  0
LINE
  8
1
 62
7
  6
CONTINUOUS
 10
316.599201142
 20
445.317515361
 11
316.599201142
 21
463.317515361
  0
LINE
  8
1
 62
7
  6
CONTINUOUS
 10
343.599201142
 20
470.317515361
 11
344.599201142
 21
469.317515361
  0
LINE
  8
1
 62
5
  6
PHANTOM2
 10
347.699201142
 20
334.317515361
 11
347.349201142
 21
334.317515361
  0
LINE
  8
1
 62
7
  6
CONTINUOUS
 10
320.849201142
 20
334.317515361
 11
347.349201142
 21
334.317515361
  0
LINE
  8
1
 62
7
  6
CONTINUOUS
 10
323.599201142
 20
469.317515361
 11
324.599201142
 21
470.317515361
  0
LINE
  8
1
 62
4
  6
CONTINUOUS
 10
344.599201142
 20
469.317515361
 11
323.599201142
 21
469.317515361
  0
LINE
  8
1
 62
7
  6
CONTINUOUS
 10
323.599201142
 20
334.317515361
 11
323.599201142
 21
315.317515361
  0
LINE
  8
1
 62
7
  6
CONTINUOUS
 10
344.599201142
 20
315.317515361
 11
343.599201142
 21
314.317515361
  0
POINT
  8
1
 62
7
  6
CONTINUOUS
 10
462.359151560
 20
229.976829205
  0
LINE
  8
1
 62
7
  6
CONTINUOUS
 10
326.199201142
 20
339.317515361
 11
326.199201142
 21
338.517515361
  0
LINE
  8
1
 62
7
  6
CONTINUOUS
 10
344.599201142
 20
315.317515361
 11
344.599201142
 21
334.317515361
  0
LINE
  8
1
 62
7
  6
CONTINUOUS
 10
324.599201142
 20
314.317515361
 11
343.599201142
 21
314.317515361
  0
LINE
  8
1
 62
4
  6
CONTINUOUS
 10
323.599201142
 20
315.317515361
 11
344.599201142
 21
315.317515361
  0
LINE
  8
1
 62
7
  6
CONTINUOUS
 10
344.599201142
 20
450.317515361
 11
344.599201142
 21
469.317515361
  0
LINE
  8
1
 62
7
  6
CONTINUOUS
 10
343.599201142
 20
470.317515361
 11
324.599201142
 21
470.317515361
  0
LINE
  8
1
 62
7
  6
CONTINUOUS
 10
323.599201142
 20
469.317515361
 11
323.599201142
 21
450.317515361
  0
LINE
  8
1
 62
7
  6
CONTINUOUS
 10
347.349201142
 20
450.317515361
 11
320.849201142
 21
450.317515361
  0
LINE
  8
1
 62
7
  6
CONTINUOUS
 10
320.849201142
 20
450.317515361
 11
320.849201142
 21
446.117515361
  0
LINE
  8
1
 62
7
  6
CONTINUOUS
 10
320.849201142
 20
446.117515361
 11
347.349201142
 21
446.117515361
  0
LINE
  8
1
 62
7
  6
CONTINUOUS
 10
347.349201142
 20
446.117515361
 11
347.349201142
 21
450.317515361
  0
LINE
  8
1
 62
7
  6
CONTINUOUS
 10
326.199201142
 20
446.117515361
 11
326.199201142
 21
445.317515361
  0
LINE
  8
1
 62
7
  6
CONTINUOUS
 10
341.999201142
 20
445.317515361
 11
341.999201142
 21
446.117515361
  0
LINE
  8
1
 62
7
  6
CONTINUOUS
 10
320.849201142
 20
338.517515361
 11
320.849201142
 21
334.317515361
  0
LINE
  8
1
 62
7
  6
CONTINUOUS
 10
341.999201142
 20
338.517515361
 11
341.999201142
 21
339.317515361
  0
LINE
  8
1
 62
7
  6
CONTINUOUS
 10
347.349201142
 20
338.517515361
 11
341.999201142
 21
338.517515361
  0
LINE
  8
1
 62
7
  6
CONTINUOUS
 10
347.349201142
 20
334.317515361
 11
347.349201142
 21
338.517515361
  0
LINE
  8
1
 62
7
  6
CONTINUOUS
 10
324.599201142
 20
314.317515361
 11
323.599201142
 21
315.317515361
  0
LINE
  8
1
 62
4
  6
HIDDEN
 10
205.786248751
 20
209.817515361
 11
223.822866822
 21
209.817515361
  0
LINE
  8
1
 62
4
  6
HIDDEN
 10
201.720105028
 20
224.227554816
 11
199.447866822
 21
228.163186837
  0
LINE
  8
1
 62
4
  6
HIDDEN
 10
196.715816014
 20
228.895237644
 11
187.502718036
 21
223.576053047
  0
ARC
  8
1
 62
4
  6
HIDDEN
 10
223.822866822
 20
218.317515361
 40
8.500000000
 50
270.000000000
 51
102.644756594
  0
ARC
  8
1
 62
4
  6
HIDDEN
 10
205.786248751
 20
232.817515361
 40
23.000000000
 50
213.808293508
 51
270.000000000
  0
LINE
  8
1
 62
4
  6
HIDDEN
 10
221.962169969
 20
226.611356885
 11
204.974897776
 21
222.800316631
  0
ARC
  8
1
 62
4
  6
HIDDEN
 10
188.752718036
 20
221.410989537
 40
2.500000000
 50
120.000000000
 51
213.808293508
  0
ARC
  8
1
 62
4
  6
HIDDEN
 10
197.715816014
 20
227.163186837
 40
2.000000000
 50
30.000000000
 51
120.000000000
  0
ARC
  8
1
 62
4
  6
HIDDEN
 10
204.318181239
 20
225.727554816
 40
3.000000000
 50
210.000000000
 51
282.644756594
  0
ARC
  8
1
 62
7
  6
CONTINUOUS
 10
164.322866822
 20
212.067515361
 40
2.000000000
 50
90.000000000
 51
180.000000000
  0
ARC
  8
1
 62
7
  6
CONTINUOUS
 10
256.322866822
 20
212.067515361
 40
2.000000000
 50
0.000000000
 51
90.000000000
  0
ARC
  8
1
 62
4
  6
HIDDEN
 10
225.322866822
 20
217.317515361
 40
10.000000000
 50
270.000000000
 51
0.000000000
  0
ARC
  8
1
 62
4
  6
HIDDEN
 10
195.322866822
 20
217.317515361
 40
10.000000000
 50
180.000000000
 51
270.000000000
  0
LINE
  8
1
 62
4
  6
HIDDEN
 10
26.322866822
 20
227.317515361
 11
26.322866822
 21
223.317515361
  0
ARC
  8
1
 62
7
  6
CONTINUOUS
 10
164.322866822
 20
224.567515361
 40
2.000000000
 50
180.000000000
 51
270.000000000
  0
LINE
  8
1
 62
4
  6
HIDDEN
 10
92.322866822
 20
227.317515361
 11
92.322866822
 21
223.317515361
  0
LINE
  8
1
 62
7
  6
CONTINUOUS
 10
162.322866822
 20
231.317515361
 11
162.322866822
 21
224.567515361
  0
LINE
  8
1
 62
7
  6
CONTINUOUS
 10
30.322866822
 20
242.317515361
 11
30.322866822
 21
229.317515361
  0
LINE
  8
1
 62
7
  6
CONTINUOUS
 10
56.322866822
 20
242.317515361
 11
56.322866822
 21
226.317515361
  0
LINE
  8
1
 62
7
  6
CONTINUOUS
 10
12.322866822
 20
227.317515361
 11
28.322866822
 21
227.317515361
  0
ARC
  8
1
 62
7
  6
CONTINUOUS
 10
90.322866822
 20
229.317515361
 40
2.000000000
 50
180.000000000
 51
270.000000000
  0
ARC
  8
1
 62
4
  6
HIDDEN
 10
242.322866822
 20
210.317515361
 40
3.000000000
 50
180.000000000
 51
270.000000000
  0
LINE
  8
1
 62
7
  6
CONTINUOUS
 10
258.322866822
 20
204.317515361
 11
258.322866822
 21
212.067515361
  0
LINE
  8
1
 62
7
  6
CONTINUOUS
 10
164.322866822
 20
214.067515361
 11
173.072866822
 21
214.067515361
  0
ARC
  8
1
 62
7
  6
CONTINUOUS
 10
163.322866822
 20
204.317515361
 40
1.000000000
 50
180.000000000
 51
270.000000000
  0
LINE
  8
1
 62
7
  6
CONTINUOUS
 10
163.322866822
 20
203.317515361
 11
257.322866822
 21
203.317515361
  0
LINE
  8
1
 62
7
  6
CONTINUOUS
 10
30.678731076
 20
243.082426559
 11
11.678731076
 21
227.082426559
  0
ARC
  8
1
 62
4
  6
HIDDEN
 10
186.322866822
 20
228.317515361
 40
5.000000000
 50
90.000000000
 51
180.000000000
  0
ARC
  8
1
 62
7
  6
CONTINUOUS
 10
256.322866822
 20
224.567515361
 40
2.000000000
 50
270.000000000
 51
0.000000000
  0
LINE
  8
1
 62
7
  6
CONTINUOUS
 10
84.322866822
 20
242.317515361
 11
84.322866822
 21
226.317515361
  0
LINE
  8
1
 62
7
  6
CONTINUOUS
 10
88.322866822
 20
242.317515361
 11
88.322866822
 21
229.317515361
  0
ARC
  8
1
 62
4
  6
HIDDEN
 10
187.322866822
 20
221.079911054
 40
2.000000000
 50
120.000000000
 51
180.000000000
  0
ARC
  8
1
 62
7
  6
CONTINUOUS
 10
55.322866822
 20
242.317515361
 40
1.000000000
 50
0.000000000
 51
90.000000000
  0
LINE
  8
1
 62
2
  6
CENTER
 10
210.322866822
 20
239.317515361
 11
210.322866822
 21
197.317515361
  0
LINE
  8
1
 62
4
  6
HIDDEN
 10
47.447866822
 20
229.207070868
 11
47.447866822
 21
241.081187262
  0
LINE
  8
1
 62
4
  6
HIDDEN
 10
51.822866822
 20
229.207070868
 11
51.822866822
 21
241.081187262
  0
ARC
  8
1
 62
7
  6
CONTINUOUS
 10
58.322866822
 20
226.317515361
 40
2.000000000
 50
180.000000000
 51
270.000000000
  0
ARC
  8
1
 62
7
  6
CONTINUOUS
 10
82.322866822
 20
226.317515361
 40
2.000000000
 50
270.000000000
 51
0.000000000
  0
LINE
  8
1
 62
4
  6
HIDDEN
 10
239.322866822
 20
204.525306687
 11
239.322866822
 21
207.833376110
  0
LINE
  8
1
 62
7
  6
CONTINUOUS
 10
58.322866822
 20
224.317515361
 11
82.322866822
 21
224.317515361
  0
ARC
  8
1
 62
7
  6
CONTINUOUS
 10
61.822866822
 20
245.317515361
 40
2.500000000
 50
306.869897645
 51
0.000000000
  0
LINE
  8
1
 62
4
  6
CONTINUOUS
 10
62.322866822
 20
275.817515361
 11
83.322866822
 21
275.817515361
  0
LINE
  8
1
 62
7
  6
CONTINUOUS
 10
83.322866822
 20
275.817515361
 11
81.322866822
 21
277.817515361
  0
LINE
  8
1
 62
7
  6
CONTINUOUS
 10
64.322866822
 20
277.817515361
 11
62.322866822
 21
275.817515361
  0
ARC
  8
1
 62
7
  6
CONTINUOUS
 10
60.822866822
 20
248.817515361
 40
1.000000000
 50
180.000000000
 51
270.000000000
  0
ARC
  8
1
 62
7
  6
CONTINUOUS
 10
60.822866822
 20
251.817515361
 40
1.000000000
 50
90.000000000
 51
180.000000000
  0
ARC
  8
1
 62
7
  6
CONTINUOUS
 10
84.822866822
 20
251.817515361
 40
1.000000000
 50
0.000000000
 51
90.000000000
  0
ARC
  8
1
 62
7
  6
CONTINUOUS
 10
84.822866822
 20
248.817515361
 40
1.000000000
 50
270.000000000
 51
0.000000000
  0
ARC
  8
1
 62
7
  6
CONTINUOUS
 10
61.822866822
 20
245.317515361
 40
2.500000000
 50
0.000000000
 51
90.000000000
  0
ARC
  8
1
 62
7
  6
CONTINUOUS
 10
83.822866822
 20
245.317515361
 40
2.500000000
 50
90.000000000
 51
180.000000000
  0
ARC
  8
1
 62
7
  6
CONTINUOUS
 10
79.322866822
 20
229.817515361
 40
2.000000000
 50
270.000000000
 51
0.000000000
  0
ARC
  8
1
 62
4
  6
HIDDEN
 10
36.322866822
 20
240.817515361
 40
2.000000000
 50
90.000000000
 51
180.000000000
  0
ARC
  8
1
 62
4
  6
HIDDEN
 10
36.322866822
 20
229.817515361
 40
2.000000000
 50
180.000000000
 51
270.000000000
  0
LINE
  8
1
 62
7
  6
CONTINUOUS
 10
69.620503193
 20
53.595680454
 11
69.620503193
 21
53.595680454
  0
LINE
  8
1
 62
7
  6
CONTINUOUS
 10
81.322866822
 20
229.817515361
 11
81.322866822
 21
245.317515361
  0
LINE
  8
1
 62
4
  6
HIDDEN
 10
36.322866822
 20
227.817515361
 11
56.322866822
 21
227.817515361
  0
LINE
  8
1
 62
4
  6
HIDDEN
 10
34.322866822
 20
240.817515361
 11
34.322866822
 21
229.817515361
  0
LINE
  8
1
 62
7
  6
CONTINUOUS
 10
61.822866822
 20
242.817515361
 11
56.188892225
 21
242.817515361
  0
LINE
  8
1
 62
7
  6
CONTINUOUS
 10
59.822866822
 20
248.817515361
 11
59.822866822
 21
251.817515361
  0
LINE
  8
1
 62
7
  6
CONTINUOUS
 10
84.822866822
 20
247.817515361
 11
60.822866822
 21
247.817515361
  0
LINE
  8
1
 62
7
  6
CONTINUOUS
 10
85.822866822
 20
251.817515361
 11
85.822866822
 21
248.817515361
  0
LINE
  8
1
 62
7
  6
CONTINUOUS
 10
60.822866822
 20
252.817515361
 11
84.822866822
 21
252.817515361
  0
LINE
  8
1
 62
7
  6
CONTINUOUS
 10
62.322866822
 20
252.817515361
 11
62.322866822
 21
275.817515361
  0
LINE
  8
1
 62
7
  6
CONTINUOUS
 10
83.322866822
 20
275.817515361
 11
83.322866822
 21
252.817515361
  0
LINE
  8
1
 62
7
  6
CONTINUOUS
 10
64.322866822
 20
277.817515361
 11
81.322866822
 21
277.817515361
  0
LINE
  8
1
 62
7
  6
CONTINUOUS
 10
173.072866822
 20
222.567515361
 11
164.322866822
 21
222.567515361
  0
ARC
  8
1
 62
7
  6
CONTINUOUS
 10
12.322866822
 20
226.317515361
 40
1.000000000
 50
90.000000000
 51
180.000000000
  0
LINE
  8
1
 62
7
  6
CONTINUOUS
 10
247.572866822
 20
214.067515361
 11
256.322866822
 21
214.067515361
  0
LINE
  8
1
 62
4
  6
HIDDEN
 10
181.322866822
 20
204.605991308
 11
181.322866822
 21
207.914060730
  0
LINE
  8
1
 62
7
  6
CONTINUOUS
 10
256.322866822
 20
222.567515361
 11
247.572866822
 21
222.567515361
  0
LINE
  8
1
 62
2
  6
CENTER
 10
156.322866822
 20
218.317515361
 11
264.322866822
 21
218.317515361
  0
LINE
  8
1
 62
2
  6
CENTER
 10
249.322866822
 20
210.067515361
 11
249.322866822
 21
226.567515361
  0
ARC
  8
1
 62
4
  6
HIDDEN
 10
163.322866822
 20
206.317515361
 40
1.000000000
 50
90.000000000
 51
180.000000000
  0
ARC
  8
1
 62
4
  6
HIDDEN
 10
257.322866822
 20
206.317515361
 40
1.000000000
 50
0.000000000
 51
90.000000000
  0
ARC
  8
1
 62
7
  6
CONTINUOUS
 10
173.072866822
 20
218.317515361
 40
4.250000000
 50
0.000000000
 51
90.000000000
  0
ARC
  8
1
 62
7
  6
CONTINUOUS
 10
173.072866822
 20
218.317515361
 40
4.250000000
 50
270.000000000
 51
0.000000000
  0
ARC
  8
1
 62
7
  6
CONTINUOUS
 10
247.572866822
 20
218.317515361
 40
4.250000000
 50
180.000000000
 51
270.000000000
  0
ARC
  8
1
 62
7
  6
CONTINUOUS
 10
247.572866822
 20
218.317515361
 40
4.250000000
 50
90.000000000
 51
180.000000000
  0
LINE
  8
1
 62
7
  6
CONTINUOUS
 10
258.322866822
 20
224.567515361
 11
258.322866822
 21
231.317515361
  0
LINE
  8
1
 62
7
  6
CONTINUOUS
 10
162.322866822
 20
212.067515361
 11
162.322866822
 21
204.317515361
  0
LINE
  8
1
 62
4
  6
HIDDEN
 10
181.322866822
 20
210.317515361
 11
181.322866822
 21
228.317515361
  0
ARC
  8
1
 62
7
  6
CONTINUOUS
 10
31.322866822
 20
242.317515361
 40
1.000000000
 50
90.000000000
 51
180.000000000
  0
ARC
  8
1
 62
4
  6
HIDDEN
 10
198.224790610
 20
226.219439150
 40
3.000000000
 50
30.000000000
 51
120.000000000
  0
LINE
  8
1
 62
4
  6
HIDDEN
 10
239.322866822
 20
210.317515361
 11
239.322866822
 21
232.317515361
  0
LINE
  8
1
 62
4
  6
HIDDEN
 10
235.322866822
 20
217.317515361
 11
235.322866822
 21
232.317515361
  0
LINE
  8
1
 62
7
  6
CONTINUOUS
 10
31.322866822
 20
243.317515361
 11
63.322866822
 21
243.317515361
  0
LINE
  8
1
 62
7
  6
CONTINUOUS
 10
107.322866822
 20
226.317515361
 11
107.322866822
 21
223.317515361
  0
LINE
  8
1
 62
7
  6
CONTINUOUS
 10
107.322866822
 20
223.317515361
 11
11.322866822
 21
223.317515361
  0
LINE
  8
1
 62
7
  6
CONTINUOUS
 10
11.322866822
 20
223.317515361
 11
11.322866822
 21
226.317515361
  0
LINE
  8
1
 62
2
  6
CENTER
 10
20.322866822
 20
231.317515361
 11
20.322866822
 21
219.317515361
  0
LINE
  8
1
 62
2
  6
CENTER
 10
98.322866822
 20
231.317515361
 11
98.322866822
 21
219.317515361
  0
ARC
  8
1
 62
7
  6
CONTINUOUS
 10
257.322866822
 20
204.317515361
 40
1.000000000
 50
270.000000000
 51
0.000000000
  0
LINE
  8
1
 62
7
  6
CONTINUOUS
 10
256.322866822
 20
233.317515361
 11
164.322866822
 21
233.317515361
  0
ARC
  8
1
 62
4
  6
HIDDEN
 10
238.322866822
 20
232.317515361
 40
1.000000000
 50
0.000000000
 51
90.000000000
  0
ARC
  8
1
 62
7
  6
CONTINUOUS
 10
85.322866822
 20
242.317515361
 40
1.000000000
 50
90.000000000
 51
180.000000000
  0
ARC
  8
1
 62
7
  6
CONTINUOUS
 10
28.322866822
 20
229.317515361
 40
2.000000000
 50
270.000000000
 51
0.000000000
  0
ARC
  8
1
 62
7
  6
CONTINUOUS
 10
87.322866822
 20
242.317515361
 40
1.000000000
 50
0.000000000
 51
90.000000000
  0
ARC
  8
1
 62
7
  6
CONTINUOUS
 10
106.322866822
 20
226.317515361
 40
1.000000000
 50
0.000000000
 51
90.000000000
  0
LINE
  8
1
 62
4
  6
HIDDEN
 10
242.322866822
 20
207.317515361
 11
257.322866822
 21
207.317515361
  0
ARC
  8
1
 62
7
  6
CONTINUOUS
 10
164.322866822
 20
231.317515361
 40
2.000000000
 50
90.000000000
 51
180.000000000
  0
ARC
  8
1
 62
7
  6
CONTINUOUS
 10
82.322866822
 20
229.317515361
 40
2.000000000
 50
270.000000000
 51
0.000000000
  0
ARC
  8
1
 62
4
  6
HIDDEN
 10
236.322866822
 20
232.317515361
 40
1.000000000
 50
90.000000000
 51
180.000000000
  0
LINE
  8
1
 62
7
  6
CONTINUOUS
 10
56.322866822
 20
227.317515361
 11
82.322866822
 21
227.317515361
  0
ARC
  8
1
 62
7
  6
CONTINUOUS
 10
256.322866822
 20
231.317515361
 40
2.000000000
 50
0.000000000
 51
90.000000000
  0
LINE
  8
1
 62
4
  6
HIDDEN
 10
195.322866822
 20
207.317515361
 11
225.322866822
 21
207.317515361
  0
LINE
  8
1
 62
4
  6
HIDDEN
 10
200.822866822
 20
227.719439150
 11
201.724790610
 21
226.157261323
  0
ARC
  8
1
 62
4
  6
HIDDEN
 10
205.322866822
 20
231.317515361
 40
2.000000000
 50
0.000000000
 51
90.000000000
  0
LINE
  8
1
 62
4
  6
HIDDEN
 10
185.322866822
 20
217.317515361
 11
185.322866822
 21
221.079911054
  0
LINE
  8
1
 62
4
  6
HIDDEN
 10
196.724790610
 20
228.817515361
 11
186.322866822
 21
222.811961862
  0
LINE
  8
1
 62
2
  6
CENTER
 10
223.822866822
 20
201.317515361
 11
223.822866822
 21
235.317515361
  0
LINE
  8
1
 62
2
  6
CENTER
 10
171.322866822
 20
210.067515361
 11
171.322866822
 21
226.567515361
  0
ARC
  8
1
 62
4
  6
HIDDEN
 10
204.322866822
 20
227.657261323
 40
2.999999990
 50
210.000000000
 51
0.000000000
  0
LINE
  8
1
 62
7
  6
CONTINUOUS
 10
90.322866822
 20
227.317515361
 11
106.322866822
 21
227.317515361
  0
ARC
  8
1
 62
4
  6
HIDDEN
 10
178.322866822
 20
210.317515361
 40
3.000000000
 50
270.000000000
 51
0.000000000
  0
LINE
  8
1
 62
4
  6
HIDDEN
 10
163.322866822
 20
207.317515361
 11
178.322866822
 21
207.317515361
  0
LINE
  8
1
 62
7
  6
CONTINUOUS
 10
106.967002567
 20
227.082426559
 11
87.967002567
 21
243.082426559
  0
LINE
  8
1
 62
4
  6
HIDDEN
 10
207.322866822
 20
227.657261323
 11
207.322866822
 21
231.317515361
  0
TEXT
  8
1
 62
1
  6
CONTINUOUS
 72
5
 10
320.000000000
 20
10.000000000
 40
2.800000000
  1
2002.02.20
 41
1.017391658
 11
341.840000000
 21
10.000000000
  0
TEXT
  8
1
 62
1
  6
CONTINUOUS
 72
5
 10
572.321069203
 20
311.035818933
 40
2.800000000
  1
パネル穴明け寸法
 41
1.326997988
 11
607.041069203
 21
311.035818933
  0
POLYLINE
  8
1
 62
5
  6
PHANTOM2
 66
1
  0
VERTEX
  8
1
 10
59.222866822
 20
297.491316227
  0
VERTEX
  8
1
 10
60.918044516
 20
298.028388749
 42
-0.003661589
  0
VERTEX
  8
1
 10
64.312172937
 20
298.885166552
 42
-0.019149583
  0
VERTEX
  8
1
 10
67.717596785
 20
299.091084307
 42
-0.035134179
  0
VERTEX
  8
1
 10
71.136264724
 20
298.505014525
 42
-0.014657169
  0
VERTEX
  8
1
 10
74.557405215
 20
297.653057087
 42
0.006770791
  0
VERTEX
  8
1
 10
77.968480623
 20
297.153950922
 42
0.029618231
  0
VERTEX
  8
1
 10
81.359913950
 20
297.488221401
 42
0.026448411
  0
VERTEX
  8
1
 10
84.736829143
 20
298.450099181
 42
0.010646929
  0
VERTEX
  8
1
 10
86.422866822
 20
299.035649978
  0
VERTEX
  8
1
 10
86.422866822
 20
299.035649978
  0
VERTEX
  8
1
 10
86.422866822
 20
299.035649978
  0
VERTEX
  8
1
 10
86.422866822
 20
299.035649978
  0
VERTEX
  8
1
 10
86.422866822
 20
299.035649978
  0
VERTEX
  8
1
 10
86.422866822
 20
299.035649978
  0
VERTEX
  8
1
 10
86.422866822
 20
299.035649978
  0
VERTEX
  8
1
 10
86.422866822
 20
299.035649978
  0
VERTEX
  8
1
 10
86.422866822
 20
299.035649978
  0
VERTEX
  8
1
 10
86.422866822
 20
299.035649978
  0
VERTEX
  8
1
 10
86.422866822
 20
299.035649978
  0
VERTEX
  8
1
 10
86.422866822
 20
299.035649978
  0
VERTEX
  8
1
 10
86.422866822
 20
299.035649978
  0
VERTEX
  8
1
 10
86.422866822
 20
299.035649978
  0
VERTEX
  8
1
 10
86.422866822
 20
299.035649978
  0
VERTEX
  8
1
 10
86.422866822
 20
299.035649978
  0
VERTEX
  8
1
 10
86.422866822
 20
299.035649978
  0
VERTEX
  8
1
 10
86.422866822
 20
299.035649978
  0
VERTEX
  8
1
 10
86.422866822
 20
299.035649978
  0
VERTEX
  8
1
 10
86.422866822
 20
299.035649978
  0
VERTEX
  8
1
 10
86.422866822
 20
299.035649978
  0
VERTEX
  8
1
 10
86.422866822
 20
299.035649978
  0
VERTEX
  8
1
 10
86.422866822
 20
299.035649978
  0
VERTEX
  8
1
 10
86.422866822
 20
299.035649978
  0
VERTEX
  8
1
 10
86.422866822
 20
299.035649978
  0
VERTEX
  8
1
 10
86.422866822
 20
299.035649978
  0
VERTEX
  8
1
 10
86.422866822
 20
299.035649978
  0
VERTEX
  8
1
 10
86.422866822
 20
299.035649978
  0
VERTEX
  8
1
 10
86.422866822
 20
299.035649978
  0
VERTEX
  8
1
 10
86.422866822
 20
299.035649978
  0
VERTEX
  8
1
 10
86.422866822
 20
299.035649978
  0
VERTEX
  8
1
 10
86.422866822
 20
299.035649978
  0
SEQEND
  8
1
  0
LINE
  8
1
 62
5
  6
PHANTOM2
 10
86.422866822
 20
321.317515361
 11
86.422866822
 21
301.609539563
  0
LINE
  8
1
 62
5
  6
PHANTOM2
 10
62.022866822
 20
321.317515361
 11
62.022866822
 21
301.126612891
  0
LINE
  8
1
 62
5
  6
PHANTOM2
 10
59.222866822
 20
252.817515361
 11
59.222866822
 21
297.491316227
  0
LINE
  8
1
 62
5
  6
PHANTOM2
 10
83.622866822
 20
252.817515361
 11
83.622866822
 21
297.876816894
  0
LINE
  8
1
 62
7
  6
CONTINUOUS
 10
683.822866822
 20
343.817515361
 11
683.822866822
 21
440.817515361
  0
LINE
  8
1
 62
7
  6
CONTINUOUS
 10
493.822866822
 20
338.817515361
 11
678.822866822
 21
338.817515361
  0
LINE
  8
1
 62
7
  6
CONTINUOUS
 10
488.822866822
 20
440.817515361
 11
488.822866822
 21
343.817515361
  0
TEXT
  8
1
 62
1
  6
CONTINUOUS
 72
5
 10
204.299977211
 20
190.268678781
 40
2.800000000
  1
矢視 A
 41
1.326922184
 11
217.179977211
 21
190.268678781
  0
LINE
  8
1
 62
5
  6
PHANTOM2
 10
86.422866822
 20
299.035649978
 11
86.422866822
 21
252.817515361
  0
LINE
  8
1
 62
5
  6
PHANTOM2
 10
347.699201142
 20
334.317515361
 11
347.699201142
 21
294.317515361
  0
LINE
  8
1
 62
5
  6
PHANTOM2
 10
323.299201142
 20
334.317515361
 11
323.299201142
 21
291.712068958
  0
LINE
  8
1
 62
5
  6
PHANTOM2
 10
344.899201142
 20
296.647001695
 11
344.899201142
 21
334.317515361
  0
LINE
  8
1
 62
5
  6
PHANTOM2
 10
320.499201142
 20
294.317515361
 11
320.499201142
 21
334.317515361
  0
LINE
  8
1
 62
2
  6
CENTER
 10
482.822866822
 20
392.317515361
 11
689.822866822
 21
392.317515361
  0
ARC
  8
1
 62
7
  6
CONTINUOUS
 10
678.822866822
 20
440.817515361
 40
5.000000000
 50
0.000000000
 51
90.000000000
  0
ARC
  8
1
 62
7
  6
CONTINUOUS
 10
678.822866822
 20
343.817515361
 40
5.000000000
 50
270.000000000
 51
0.000000000
  0
LINE
  8
1
 62
2
  6
CENTER
 10
586.322866822
 20
460.317515361
 11
586.322866822
 21
324.317515361
  0
ARC
  8
1
 62
7
  6
CONTINUOUS
 10
493.822866822
 20
343.817515361
 40
5.000000000
 50
180.000000000
 51
270.000000000
  0
ARC
  8
1
 62
7
  6
CONTINUOUS
 10
493.822866822
 20
440.817515361
 40
5.000000000
 50
90.000000000
 51
180.000000000
  0
LINE
  8
1
 62
2
  6
CENTER
 10
480.322866822
 20
436.317515361
 11
480.322866822
 21
448.317515361
  0
LINE
  8
1
 62
2
  6
CENTER
 10
474.322866822
 20
442.317515361
 11
486.322866822
 21
442.317515361
  0
LINE
  8
1
 62
2
  6
CENTER
 10
480.322866822
 20
336.317515361
 11
480.322866822
 21
348.317515361
  0
LINE
  8
1
 62
2
  6
CENTER
 10
474.322866822
 20
342.317515361
 11
486.322866822
 21
342.317515361
  0
LINE
  8
1
 62
2
  6
CENTER
 10
580.322866822
 20
330.317515361
 11
592.322866822
 21
330.317515361
  0
LINE
  8
1
 62
2
  6
CENTER
 10
692.322866822
 20
336.317515361
 11
692.322866822
 21
348.317515361
  0
LINE
  8
1
 62
2
  6
CENTER
 10
686.322866822
 20
342.317515361
 11
698.322866822
 21
342.317515361
  0
LINE
  8
1
 62
2
  6
CENTER
 10
692.322866822
 20
436.317515361
 11
692.322866822
 21
448.317515361
  0
LINE
  8
1
 62
2
  6
CENTER
 10
686.322866822
 20
442.317515361
 11
698.322866822
 21
442.317515361
  0
LINE
  8
1
 62
2
  6
CENTER
 10
580.322866822
 20
454.317515361
 11
592.322866822
 21
454.317515361
  0
LINE
  8
1
 62
2
  6
CENTER
 10
515.322866822
 20
449.560134914
 11
515.322866822
 21
335.037755483
  0
CIRCLE
  8
1
 62
7
  6
CONTINUOUS
 10
480.322866822
 20
442.317515361
 40
3.100000000
  0
CIRCLE
  8
1
 62
7
  6
CONTINUOUS
 10
480.322866822
 20
342.317515361
 40
3.100000000
  0
CIRCLE
  8
1
 62
7
  6
CONTINUOUS
 10
586.322866822
 20
330.317515361
 40
3.100000000
  0
CIRCLE
  8
1
 62
7
  6
CONTINUOUS
 10
692.322866822
 20
342.317515361
 40
3.100000000
  0
CIRCLE
  8
1
 62
7
  6
CONTINUOUS
 10
692.322866822
 20
442.317515361
 40
3.100000000
  0
CIRCLE
  8
1
 62
7
  6
CONTINUOUS
 10
586.322866822
 20
454.317515361
 40
3.100000000
  0
LINE
  8
4
 62
4
  6
CONTINUOUS
 10
315.822866822
 20
135.906152206
 11
315.822866822
 21
131.906152206
  0
LINE
  8
4
 62
4
  6
CONTINUOUS
 10
315.822866822
 20
131.906152206
 11
301.822866822
 21
131.906152206
  0
LINE
  8
4
 62
4
  6
CONTINUOUS
 10
301.822866822
 20
131.906152206
 11
301.822866822
 21
135.906152206
  0
LINE
  8
4
 62
7
  6
CONTINUOUS
 10
303.322866822
 20
125.687525239
 11
303.322866822
 21
118.656152206
  0
LINE
  8
4
 62
7
  6
CONTINUOUS
 10
314.322866822
 20
118.656152206
 11
314.322866822
 21
125.687525239
  0
ARC
  8
4
 62
7
  6
CONTINUOUS
 10
299.322866822
 20
125.687525239
 40
4.000000000
 50
0.000000000
 51
82.819244219
  0
LINE
  8
4
 62
4
  6
CONTINUOUS
 10
301.822866822
 20
135.906152206
 11
315.822866822
 21
135.906152206
  0
ARC
  8
4
 62
7
  6
CONTINUOUS
 10
316.321601276
 20
147.156152206
 40
1.250000000
 50
270.000000000
 51
72.732529094
  0
LINE
  8
4
 62
7
  6
CONTINUOUS
 10
308.822866822
 20
150.796075578
 11
300.680731767
 21
148.353435062
  0
LINE
  8
4
 62
7
  6
CONTINUOUS
 10
301.039916624
 20
145.906152206
 11
316.321601276
 21
145.906152206
  0
LINE
  8
4
 62
7
  6
CONTINUOUS
 10
312.522866822
 20
103.259916671
 11
312.522866822
 21
118.356152206
  0
LINE
  8
4
 62
7
  6
CONTINUOUS
 10
309.588911265
 20
99.763364596
 11
312.522866822
 21
103.259916671
  0
LINE
  8
4
 62
7
  6
CONTINUOUS
 10
305.122866822
 20
103.259916671
 11
308.056822378
 21
99.763364596
  0
LINE
  8
4
 62
7
  6
CONTINUOUS
 10
305.122866822
 20
118.356152206
 11
305.122866822
 21
103.259916671
  0
LINE
  8
4
 62
7
  6
CONTINUOUS
 10
316.692642239
 20
148.349814052
 11
308.822866822
 21
150.796075578
  0
LINE
  8
4
 62
4
  6
CONTINUOUS
 10
301.322866822
 20
136.406152206
 11
316.322866822
 21
136.406152206
  0
LINE
  8
4
 62
7
  6
CONTINUOUS
 10
314.022866822
 20
118.356152206
 11
312.522866822
 21
118.356152206
  0
LINE
  8
4
 62
7
  6
CONTINUOUS
 10
303.622866822
 20
118.356152206
 11
305.122866822
 21
118.356152206
  0
LINE
  8
4
 62
7
  6
CONTINUOUS
 10
321.016628679
 20
147.906219963
 11
317.822866822
 21
129.656152206
  0
LINE
  8
4
 62
7
  6
CONTINUOUS
 10
308.822866822
 20
153.406152206
 11
319.621263516
 21
150.166633197
  0
LINE
  8
4
 62
7
  6
CONTINUOUS
 10
296.629104964
 20
147.906219963
 11
299.822866822
 21
129.656152206
  0
LINE
  8
4
 62
7
  6
CONTINUOUS
 10
308.822866822
 20
153.406152206
 11
298.024470127
 21
150.166633197
  0
LINE
  8
4
 62
2
  6
CENTER
 10
308.822866822
 20
156.754670243
 11
308.822866822
 21
94.566790305
  0
LINE
  8
4
 62
4
  6
CONTINUOUS
 10
316.322866822
 20
136.406152206
 11
316.322866822
 21
131.406152206
  0
LINE
  8
4
 62
4
  6
CONTINUOUS
 10
316.322866822
 20
131.406152206
 11
301.322866822
 21
131.406152206
  0
LINE
  8
4
 62
4
  6
CONTINUOUS
 10
301.322866822
 20
131.406152206
 11
301.322866822
 21
136.406152206
  0
LINE
  8
4
 62
4
  6
CONTINUOUS
 10
298.685613103
 20
143.406152206
 11
318.960120540
 21
143.406152206
  0
LINE
  8
4
 62
4
  6
CONTINUOUS
 10
318.960120540
 20
143.406152206
 11
316.735085928
 21
130.691668705
  0
LINE
  8
4
 62
4
  6
CONTINUOUS
 10
298.685613103
 20
143.406152206
 11
300.910647716
 21
130.691668705
  0
LINE
  8
4
 62
4
  6
CONTINUOUS
 10
304.363267087
 20
127.156152206
 11
313.282466556
 21
127.156152206
  0
ARC
  8
4
 62
4
  6
CONTINUOUS
 10
299.322866822
 20
125.687525239
 40
5.250000000
 50
16.244596396
 51
72.396118975
  0
ARC
  8
4
 62
4
  6
CONTINUOUS
 10
318.322866822
 20
125.687525239
 40
5.250000000
 50
107.603881025
 51
163.755403604
  0
LINE
  8
4
 62
7
  6
CONTINUOUS
 10
307.022866822
 20
123.356152206
 11
305.122866822
 21
123.356152206
  0
ARC
  8
4
 62
7
  6
CONTINUOUS
 10
314.022866822
 20
118.656152206
 40
0.300000000
 50
270.000000000
 51
0.000000000
  0
ARC
  8
4
 62
7
  6
CONTINUOUS
 10
308.822866822
 20
100.406152206
 40
1.000000000
 50
220.000000000
 51
320.000000000
  0
LINE
  8
4
 62
7
  6
CONTINUOUS
 10
307.022866822
 20
100.995584845
 11
307.022866822
 21
123.356152206
  0
LINE
  8
4
 62
7
  6
CONTINUOUS
 10
305.122866822
 20
123.356152206
 11
305.122866822
 21
118.356152206
  0
ARC
  8
4
 62
7
  6
CONTINUOUS
 10
318.322866822
 20
125.687525239
 40
4.000000000
 50
97.180755781
 51
180.000000000
  0
ARC
  8
4
 62
7
  6
CONTINUOUS
 10
303.622866822
 20
118.656152206
 40
0.300000000
 50
180.000000000
 51
270.000000000
  0
ARC
  8
4
 62
7
  6
CONTINUOUS
 10
319.046567745
 20
148.250980627
 40
2.000000000
 50
350.073754493
 51
73.300755766
  0
ARC
  8
4
 62
7
  6
CONTINUOUS
 10
301.039916624
 20
147.156152206
 40
1.250000000
 50
106.699244234
 51
270.000000000
  0
ARC
  8
4
 62
7
  6
CONTINUOUS
 10
298.599165898
 20
148.250980627
 40
2.000000000
 50
106.699244234
 51
189.926245507
  0
LINE
  8
1
 62
7
  6
CONTINUOUS
 10
308.122866822
 20
99.692009363
 11
308.122866822
 21
123.956152206
  0
LINE
  8
1
 62
7
  6
CONTINUOUS
 10
308.122866822
 20
123.956152206
 11
309.122866822
 21
123.956152206
  0
LINE
  8
1
 62
7
  6
CONTINUOUS
 10
309.122866822
 20
99.452213004
 11
309.122866822
 21
123.956152206
  0
TEXT
  8
1
 62
1
  6
CONTINUOUS
 72
5
 10
320.000000000
 20
20.000000000
 40
5.000000000
  1
FA-816-1-A
 41
0.866666378
 11
359.000000000
 21
20.000000000
  0
ARC
  8
1
 62
7
  6
CONTINUOUS
 10
236.453033231
 20
45.317515361
 40
2.000000000
 50
270.000000000
 51
355.000000000
  0
ARC
  8
1
 62
7
  6
CONTINUOUS
 10
51.192700412
 20
45.317515361
 40
2.000000000
 50
185.000000000
 51
270.000000000
  0
LINE
  8
1
 62
7
  6
CONTINUOUS
 10
240.822866822
 20
72.317515361
 11
236.216657582
 21
72.317515361
  0
LINE
  8
1
 62
7
  6
CONTINUOUS
 10
238.445422627
 20
45.143203876
 11
240.822866822
 21
72.317515361
  0
LINE
  8
1
 62
7
  6
CONTINUOUS
 10
46.822866822
 20
78.317515361
 11
46.822866822
 21
72.317515361
  0
LINE
  8
1
 62
7
  6
CONTINUOUS
 10
240.822866822
 20
78.317515361
 11
240.822866822
 21
72.317515361
  0
LINE
  8
1
 62
7
  6
CONTINUOUS
 10
46.822866822
 20
72.317515361
 11
49.200311016
 21
45.143203876
  0
LINE
  8
1
 62
7
  6
CONTINUOUS
 10
48.822866822
 20
321.317515361
 11
238.822866822
 21
321.317515361
  0
ARC
  8
1
 62
7
  6
CONTINUOUS
 10
48.822866822
 20
341.317515361
 40
20.000000000
 50
180.000000000
 51
270.000000000
  0
LINE
  8
1
 62
7
  6
CONTINUOUS
 10
28.822866822
 20
341.317515361
 11
28.822866822
 21
443.317515361
  0
ARC
  8
1
 62
7
  6
CONTINUOUS
 10
48.822866822
 20
443.317515361
 40
20.000000000
 50
90.000000000
 51
180.000000000
  0
LINE
  8
1
 62
7
  6
CONTINUOUS
 10
48.822866822
 20
463.317515361
 11
238.822866822
 21
463.317515361
  0
LINE
  8
1
 62
7
  6
CONTINUOUS
 10
258.822866822
 20
341.317515361
 11
258.822866822
 21
443.317515361
  0
ARC
  8
1
 62
7
  6
CONTINUOUS
 10
238.822866822
 20
443.317515361
 40
20.000000000
 50
0.000000000
 51
90.000000000
  0
ARC
  8
1
 62
7
  6
CONTINUOUS
 10
219.822866822
 20
365.217515351
 40
20.000000000
 50
270.000000000
 51
0.000000000
  0
LINE
  8
1
 62
7
  6
CONTINUOUS
 10
239.822866822
 20
365.217515351
 11
239.822866822
 21
419.417515361
  0
ARC
  8
1
 62
7
  6
CONTINUOUS
 10
219.822866822
 20
419.417515361
 40
20.000000000
 50
0.000000000
 51
90.000000000
  0
LINE
  8
1
 62
7
  6
CONTINUOUS
 10
49.822866822
 20
345.217515351
 11
219.822866822
 21
345.217515351
  0
ARC
  8
1
 62
7
  6
CONTINUOUS
 10
49.822866822
 20
347.217515351
 40
2.000000000
 50
180.000000000
 51
270.000000000
  0
ARC
  8
1
 62
7
  6
CONTINUOUS
 10
60.204863112
 20
347.217515351
 40
2.000000000
 50
180.000000000
 51
270.000000000
  0
LINE
  8
1
 62
7
  6
CONTINUOUS
 10
58.204863112
 20
347.217515351
 11
58.204863112
 21
437.417515361
  0
ARC
  8
1
 62
7
  6
CONTINUOUS
 10
60.204863112
 20
437.417515361
 40
2.000000000
 50
90.000000000
 51
180.000000000
  0
ARC
  8
1
 62
7
  6
CONTINUOUS
 10
197.741448972
 20
419.417515361
 40
20.000000000
 50
0.000000000
 51
90.000000000
  0
LINE
  8
1
 62
7
  6
CONTINUOUS
 10
217.741448972
 20
365.217515351
 11
217.741448972
 21
419.417515361
  0
ARC
  8
1
 62
7
  6
CONTINUOUS
 10
197.741448972
 20
365.217515351
 40
20.000000000
 50
270.000000000
 51
0.000000000
  0
ARC
  8
1
 62
7
  6
CONTINUOUS
 10
60.322866822
 20
347.817515361
 40
1.500000000
 50
180.000000000
 51
270.000000000
  0
LINE
  8
1
 62
7
  6
CONTINUOUS
 10
58.822866822
 20
347.817515361
 11
58.822866822
 21
436.817515361
  0
ARC
  8
1
 62
7
  6
CONTINUOUS
 10
60.322866822
 20
436.817515361
 40
1.500000000
 50
90.000000000
 51
180.000000000
  0
CIRCLE
  8
1
 62
7
  6
CONTINUOUS
 10
37.822866822
 20
442.317515361
 40
3.100000000
  0
ARC
  8
1
 62
7
  6
CONTINUOUS
 10
353.179684892
 20
392.317515361
 40
200.000000000
 50
169.047215801
 51
190.952784199
  0
LINE
  8
1
 62
7
  6
CONTINUOUS
 10
60.322866822
 20
346.317515361
 11
155.322866822
 21
346.317515361
  0
ARC
  8
1
 62
7
  6
CONTINUOUS
 10
155.322866822
 20
347.817515361
 40
1.500000000
 50
270.000000000
 51
0.000000000
  0
LINE
  8
1
 62
7
  6
CONTINUOUS
 10
60.322866822
 20
438.317515361
 11
155.322866822
 21
438.317515361
  0
CIRCLE
  8
1
 62
7
  6
CONTINUOUS
 10
37.822866822
 20
442.317515361
 40
6.099999980
  0
CIRCLE
  8
1
 62
7
  6
CONTINUOUS
 10
37.822866822
 20
342.317515361
 40
3.100000000
  0
CIRCLE
  8
1
 62
7
  6
CONTINUOUS
 10
143.822866822
 20
454.317515361
 40
3.100000000
  0
ARC
  8
1
 62
7
  6
CONTINUOUS
 10
155.322866822
 20
436.817515361
 40
1.500000000
 50
0.000000000
 51
90.000000000
  0
LINE
  8
1
 62
7
  6
CONTINUOUS
 10
156.822866822
 20
347.817515361
 11
156.822866822
 21
354.317515361
  0
LINE
  8
1
 62
7
  6
CONTINUOUS
 10
156.822866829
 20
430.317515365
 11
156.822866822
 21
436.817515361
  0
CIRCLE
  8
1
 62
4
  6
CONTINUOUS
 10
137.822866822
 20
392.317515361
 40
6.300000000
  0
CIRCLE
  8
1
 62
7
  6
CONTINUOUS
 10
137.822866822
 20
392.317515361
 40
8.250000000
  0
ARC
  8
1
 62
7
  6
CONTINUOUS
 10
181.322866822
 20
355.817515361
 40
1.500000000
 50
270.000000000
 51
0.000000000
  0
LINE
  8
1
 62
7
  6
CONTINUOUS
 10
182.822866822
 20
355.817515361
 11
182.822866822
 21
428.817515361
  0
ARC
  8
1
 62
7
  6
CONTINUOUS
 10
181.322866822
 20
428.817515361
 40
1.500000000
 50
0.000000000
 51
90.000000000
  0
ARC
  8
1
 62
7
  6
CONTINUOUS
 10
160.322866822
 20
352.817515361
 40
1.500000000
 50
90.000000000
 51
180.000000000
  0
LINE
  8
1
 62
7
  6
CONTINUOUS
 10
158.822866822
 20
347.817515361
 11
158.822866822
 21
352.817515361
  0
ARC
  8
1
 62
7
  6
CONTINUOUS
 10
160.322866822
 20
347.817515361
 40
1.500000000
 50
180.000000000
 51
270.000000000
  0
ARC
  8
1
 62
7
  6
CONTINUOUS
 10
160.322866822
 20
431.817515361
 40
1.500000000
 50
180.000000000
 51
270.000000000
  0
LINE
  8
1
 62
7
  6
CONTINUOUS
 10
158.822866822
 20
431.817515361
 11
158.822866822
 21
436.817515361
  0
ARC
  8
1
 62
7
  6
CONTINUOUS
 10
160.322866822
 20
436.817515361
 40
1.500000000
 50
90.000000000
 51
180.000000000
  0
LINE
  8
1
 62
7
  6
CONTINUOUS
 10
150.322866822
 20
346.317515361
 11
198.822866822
 21
346.317515361
  0
ARC
  8
1
 62
7
  6
CONTINUOUS
 10
198.822866822
 20
353.317515361
 40
6.999999980
 50
270.000000000
 51
0.000000000
  0
LINE
  8
1
 62
7
  6
CONTINUOUS
 10
205.822866822
 20
353.317515361
 11
205.822866822
 21
431.317515361
  0
LINE
  8
1
 62
7
  6
CONTINUOUS
 10
150.322866822
 20
438.317515361
 11
198.822866822
 21
438.317515361
  0
CIRCLE
  8
1
 62
7
  6
CONTINUOUS
 10
249.822866822
 20
442.317515361
 40
6.099999980
  0
ARC
  8
1
 62
7
  6
CONTINUOUS
 10
198.822866822
 20
431.317515361
 40
6.999999980
 50
0.000000000
 51
90.000000000
  0
LINE
  8
1
 62
7
  6
CONTINUOUS
 10
49.822866822
 20
439.417515361
 11
219.822866822
 21
439.417515361
  0
LINE
  8
1
 62
7
  6
CONTINUOUS
 10
47.822866822
 20
347.217515351
 11
47.822866822
 21
437.417515361
  0
CIRCLE
  8
1
 62
7
  6
CONTINUOUS
 10
143.822866822
 20
330.317515361
 40
6.099999980
  0
CIRCLE
  8
1
 62
7
  6
CONTINUOUS
 10
249.822866822
 20
342.317515361
 40
6.099999980
  0
ARC
  8
1
 62
7
  6
CONTINUOUS
 10
49.822866822
 20
437.417515361
 40
2.000000000
 50
90.000000000
 51
180.000000000
  0
CIRCLE
  8
1
 62
7
  6
CONTINUOUS
 10
143.822866822
 20
454.317515361
 40
6.099999980
  0
CIRCLE
  8
1
 62
7
  6
CONTINUOUS
 10
37.822866822
 20
342.317515361
 40
6.099999980
  0
LINE
  8
1
 62
7
  6
CONTINUOUS
 10
156.822866822
 20
354.317515361
 11
181.322866822
 21
354.317515361
  0
LINE
  8
1
 62
7
  6
CONTINUOUS
 10
156.822866829
 20
430.317515365
 11
181.322866822
 21
430.317515361
  0
LINE
  8
2
 62
5
  6
PHANTOM2
 10
47.194646162
 20
133.099559067
 11
41.543684642
 21
131.042777281
  0
ARC
  8
2
 62
5
  6
PHANTOM2
 10
1543.728412652
 20
674.600771331
 40
1599.500000000
 50
199.964134090
 51
200.186364080
  0
ARC
  8
2
 62
5
  6
PHANTOM2
 10
42.227724932
 20
129.163392031
 40
2.000000000
 50
110.000000000
 51
199.964134090
  0
LINE
  8
2
 62
2
  6
CENTER
 10
129.822866822
 20
414.817515361
 11
151.822866822
 21
414.817515361
  0
LINE
  8
2
 62
2
  6
CENTER
 10
22.822866822
 20
392.317515361
 11
264.822866822
 21
392.317515361
  0
ARC
  8
2
 62
4
  6
HIDDEN2
 10
46.313710252
 20
82.468495391
 40
2.000000000
 50
15.000000000
 51
93.498332891
  0
LINE
  8
2
 62
4
  6
HIDDEN2
 10
57.807665442
 20
47.299877261
 11
48.245561895
 21
82.986133478
  0
LINE
  8
2
 62
4
  6
HIDDEN2
 10
59.739517092
 20
45.817515361
 11
86.822866822
 21
45.817515361
  0
ARC
  8
2
 62
4
  6
HIDDEN2
 10
59.739517092
 20
47.817515361
 40
2.000000000
 50
195.000000000
 51
270.000000000
  0
LINE
  8
2
 62
4
  6
HIDDEN2
 10
86.822866822
 20
46.317515361
 11
209.081194932
 21
46.317515361
  0
LINE
  8
2
 62
4
  6
HIDDEN2
 10
86.822866822
 20
45.817515361
 11
86.822866822
 21
46.317515361
  0
ARC
  8
2
 62
4
  6
HIDDEN2
 10
209.081194932
 20
61.317515361
 40
15.000000000
 50
270.000000000
 51
330.000000000
  0
LINE
  8
2
 62
4
  6
HIDDEN2
 10
222.071575987
 20
53.817515359
 11
239.204507002
 21
83.492622351
  0
ARC
  8
2
 62
4
  6
HIDDEN2
 10
240.936557812
 20
82.492622351
 40
2.000000000
 50
86.515872766
 51
150.000000000
  0
ARC
  8
1
 62
7
  6
CONTINUOUS
 10
143.822866822
 20
-1512.553750329
 40
1600.000000000
 50
85.948011660
 51
94.051988330
  0
LINE
  8
1
 62
7
  6
CONTINUOUS
 10
258.822866822
 20
78.317515361
 11
258.739421742
 21
81.504154631
  0
ARC
  8
1
 62
7
  6
CONTINUOUS
 10
256.740107092
 20
81.451800731
 40
2.000000000
 50
1.500000000
 51
85.948011660
  0
LINE
  8
1
 62
7
  6
CONTINUOUS
 10
28.822866822
 20
78.317515361
 11
28.906311912
 21
81.504154631
  0
ARC
  8
1
 62
7
  6
CONTINUOUS
 10
30.905626562
 20
81.451800731
 40
2.000000000
 50
94.051988330
 51
178.499999990
  0
LINE
  8
1
 62
7
  6
CONTINUOUS
 10
46.822866822
 20
72.317515361
 11
47.998380972
 21
72.317515361
  0
LINE
  8
1
 62
7
  6
CONTINUOUS
 10
224.669652202
 20
52.317515361
 11
236.216657582
 21
72.317515361
  0
INSERT
  8
1
 62
7
  6
CONTINUOUS
  2
blk379
 10
209.081194932
 20
61.317515361
 41
17.999999980
 42
18.000000000
 50
0.000000000
  0
LINE
  8
1
 62
7
  6
CONTINUOUS
 10
54.775913362
 20
47.023420131
 11
47.998380972
 21
72.317515361
  0
LINE
  8
1
 62
7
  6
CONTINUOUS
 10
51.192700412
 20
43.317515361
 11
236.453033231
 21
43.317515361
  0
ARC
  8
1
 62
7
  6
CONTINUOUS
 10
59.605542492
 20
48.317515361
 40
5.000000000
 50
195.000000000
 51
270.000000000
  0
LINE
  8
1
 62
7
  6
CONTINUOUS
 10
28.822866822
 20
78.317515361
 11
258.822866822
 21
78.317515361
  0
LINE
  8
1
 62
4
  6
CONTINUOUS
 10
87.822866822
 20
50.317515361
 11
87.822866822
 21
58.817515361
  0
LINE
  8
1
 62
4
  6
CONTINUOUS
 10
87.822866822
 20
67.817515361
 11
87.822866822
 21
76.317515361
  0
LINE
  8
1
 62
4
  6
CONTINUOUS
 10
139.822866822
 20
50.317515361
 11
139.822866822
 21
58.817515361
  0
LINE
  8
1
 62
4
  6
CONTINUOUS
 10
139.822866822
 20
67.817515361
 11
139.822866822
 21
76.317515361
  0
LINE
  8
1
 62
4
  6
CONTINUOUS
 10
144.822866822
 20
50.317515361
 11
144.822866822
 21
58.817515361
  0
LINE
  8
1
 62
4
  6
CONTINUOUS
 10
144.822866822
 20
67.817515361
 11
144.822866822
 21
76.317515361
  0
LINE
  8
1
 62
4
  6
CONTINUOUS
 10
196.822866822
 20
58.317515361
 11
196.822866822
 21
58.817515361
  0
LINE
  8
1
 62
4
  6
CONTINUOUS
 10
196.822866822
 20
67.817515361
 11
196.822866822
 21
76.317515361
  0
LINE
  8
1
 62
4
  6
CONTINUOUS
 10
89.822866822
 20
65.817515361
 11
137.822866822
 21
65.817515361
  0
LINE
  8
1
 62
4
  6
CONTINUOUS
 10
146.822866822
 20
65.817515361
 11
194.822866822
 21
65.817515361
  0
LINE
  8
1
 62
4
  6
CONTINUOUS
 10
89.822866822
 20
60.817515361
 11
137.822866822
 21
60.817515361
  0
LINE
  8
1
 62
4
  6
CONTINUOUS
 10
146.822866822
 20
60.817515361
 11
194.822866822
 21
60.817515361
  0
LINE
  8
1
 62
4
  6
CONTINUOUS
 10
89.822866822
 20
48.317515361
 11
137.822866822
 21
48.317515361
  0
LINE
  8
1
 62
4
  6
CONTINUOUS
 10
146.822866822
 20
48.317515361
 11
186.822866822
 21
48.317515361
  0
ARC
  8
1
 62
4
  6
CONTINUOUS
 10
194.822866822
 20
76.317515361
 40
2.000000000
 50
0.000000000
 51
90.000000000
  0
ARC
  8
1
 62
4
  6
CONTINUOUS
 10
146.822866822
 20
76.317515361
 40
2.000000000
 50
90.000000000
 51
180.000000000
  0
ARC
  8
1
 62
4
  6
CONTINUOUS
 10
137.822866822
 20
76.317515361
 40
2.000000000
 50
0.000000000
 51
90.000000000
  0
ARC
  8
1
 62
4
  6
CONTINUOUS
 10
89.822866822
 20
76.317515361
 40
2.000000000
 50
90.000000000
 51
180.000000000
  0
ARC
  8
1
 62
4
  6
CONTINUOUS
 10
89.822866822
 20
67.817515361
 40
2.000000000
 50
180.000000000
 51
270.000000000
  0
ARC
  8
1
 62
4
  6
CONTINUOUS
 10
89.822866822
 20
58.817515361
 40
2.000000000
 50
90.000000000
 51
180.000000000
  0
ARC
  8
1
 62
4
  6
CONTINUOUS
 10
194.822866822
 20
67.817515361
 40
2.000000000
 50
270.000000000
 51
0.000000000
  0
ARC
  8
1
 62
4
  6
CONTINUOUS
 10
194.822866822
 20
58.817515361
 40
2.000000000
 50
0.000000000
 51
90.000000000
  0
ARC
  8
1
 62
4
  6
CONTINUOUS
 10
186.822866822
 20
58.317515361
 40
10.000000000
 50
270.000000000
 51
0.000000000
  0
ARC
  8
1
 62
4
  6
CONTINUOUS
 10
137.822866822
 20
67.817515361
 40
2.000000000
 50
270.000000000
 51
0.000000000
  0
ARC
  8
1
 62
4
  6
CONTINUOUS
 10
146.822866822
 20
67.817515361
 40
2.000000000
 50
180.000000000
 51
270.000000000
  0
ARC
  8
1
 62
4
  6
CONTINUOUS
 10
146.822866822
 20
58.817515361
 40
2.000000000
 50
90.000000000
 51
180.000000000
  0
ARC
  8
1
 62
4
  6
CONTINUOUS
 10
137.822866822
 20
58.817515361
 40
2.000000000
 50
0.000000000
 51
90.000000000
  0
ARC
  8
1
 62
4
  6
CONTINUOUS
 10
137.822866822
 20
50.317515361
 40
2.000000000
 50
270.000000000
 51
0.000000000
  0
ARC
  8
1
 62
4
  6
CONTINUOUS
 10
146.822866822
 20
50.317515361
 40
2.000000000
 50
180.000000000
 51
270.000000000
  0
ARC
  8
1
 62
4
  6
CONTINUOUS
 10
89.822866822
 20
50.317515361
 40
2.000000000
 50
180.000000000
 51
270.000000000
  0
INSERT
  8
2
 62
5
  6
PHANTOM2
  2
blk414
 10
75.774438286
 20
87.750196318
 41
45.477438158
 42
45.477438154
 50
89.930088197
  0
ARC
  8
2
 62
5
  6
PHANTOM2
 10
44.354571822
 20
123.343721121
 40
2.000000000
 50
200.186364080
 51
311.503133960
  0
ARC
  8
2
 62
5
  6
PHANTOM2
 10
107.550846512
 20
98.673106451
 40
60.000000000
 50
181.233234660
 51
193.519403100
  0
ARC
  8
2
 62
5
  6
PHANTOM2
 10
1647.194132526
 20
131.817515215
 40
1600.000000000
 50
179.587796590
 51
181.233234660
  0
ARC
  8
2
 62
5
  6
PHANTOM2
 10
48.735499962
 20
143.317515361
 40
1.500000000
 50
90.000000000
 51
179.587796590
  0
LINE
  8
2
 62
5
  6
PHANTOM2
 10
72.822866822
 20
85.870160891
 11
72.822866822
 21
132.759241041
  0
ARC
  8
2
 62
5
  6
PHANTOM2
 10
71.322866822
 20
132.759241041
 40
1.500000000
 50
0.000000000
 51
88.500000000
  0
LINE
  8
2
 62
5
  6
PHANTOM2
 10
50.022866832
 20
144.817515361
 11
48.735499962
 21
144.817515361
  0
LINE
  8
2
 62
5
  6
PHANTOM2
 10
50.022866832
 20
144.817515361
 11
50.822866822
 21
144.796566621
  0
LINE
  8
2
 62
5
  6
PHANTOM2
 10
71.362132244
 20
134.258727019
 11
50.822866822
 21
134.796566621
  0
LINE
  8
2
 62
5
  6
PHANTOM2
 10
65.822866822
 20
135.394942441
 11
79.875220722
 21
135.762916281
  0
ARC
  8
2
 62
5
  6
PHANTOM2
 10
76.822866822
 20
136.817515361
 40
5.000000000
 50
0.000000000
 51
90.000000000
  0
LINE
  8
2
 62
5
  6
PHANTOM2
 10
81.822866822
 20
111.539947221
 11
81.822866822
 21
136.817515361
  0
ARC
  8
2
 62
5
  6
PHANTOM2
 10
78.822866822
 20
111.539947221
 40
3.000000000
 50
300.000000000
 51
0.000000000
  0
LINE
  8
2
 62
5
  6
PHANTOM2
 10
76.822866822
 20
141.817515361
 11
76.322866822
 21
141.817515361
  0
ARC
  8
2
 62
5
  6
PHANTOM2
 10
76.322866822
 20
142.817515361
 40
1.000000000
 50
180.000000000
 51
270.000000000
  0
LINE
  8
2
 62
5
  6
PHANTOM2
 10
75.322866822
 20
142.817515361
 11
75.322866822
 21
166.239539431
  0
ARC
  8
2
 62
5
  6
PHANTOM2
 10
70.322866822
 20
166.239539431
 40
5.000000000
 50
0.000000000
 51
34.999999990
  0
ARC
  8
2
 62
5
  6
PHANTOM2
 10
48.824506632
 20
179.507911741
 40
15.000000000
 50
34.999999990
 51
72.548962770
  0
ARC
  8
2
 62
5
  6
PHANTOM2
 10
51.284360632
 20
190.817515361
 40
3.000000000
 50
90.000000000
 51
177.882767400
  0
LINE
  8
2
 62
5
  6
PHANTOM2
 10
53.322866831
 20
193.817515352
 11
51.284360632
 21
193.817515361
  0
LINE
  8
2
 62
5
  6
PHANTOM2
 10
61.111787297
 20
188.111558284
 11
74.418627044
 21
169.107421612
  0
ARC
  8
2
 62
5
  6
PHANTOM2
 10
62.361617492
 20
145.817515361
 40
1.000000000
 50
339.999999990
 51
90.000000000
  0
LINE
  8
2
 62
5
  6
PHANTOM2
 10
62.361617492
 20
146.817515361
 11
48.779292752
 21
146.817515361
  0
ARC
  8
2
 62
5
  6
PHANTOM2
 10
1647.194132526
 20
131.817515215
 40
1600.000000000
 50
177.882767400
 51
179.408572310
  0
ARC
  8
2
 62
5
  6
PHANTOM2
 10
48.779292752
 20
148.317515361
 40
1.500000000
 50
179.408572310
 51
270.000000000
  0
LINE
  8
2
 62
5
  6
PHANTOM2
 10
59.333385102
 20
134.573710851
 11
63.301310112
 21
145.475495218
  0
LINE
  8
2
 62
5
  6
PHANTOM2
 10
72.822866822
 20
104.611743991
 11
80.322866821
 21
108.941871009
  0
LINE
  8
2
 62
5
  6
PHANTOM2
 10
50.822866822
 20
134.796566621
 11
50.822866822
 21
144.796566621
  0
LINE
  8
2
 62
5
  6
PHANTOM2
 10
65.822866822
 20
135.394942441
 11
59.690733682
 21
135.555518001
  0
ARC
  8
2
 62
5
  6
PHANTOM2
 10
184.915770672
 20
107.850485061
 40
15.000000000
 50
324.682910040
 51
2.231872820
  0
ARC
  8
2
 62
5
  6
PHANTOM2
 10
196.393080342
 20
109.343595381
 40
3.000000000
 50
19.682910040
 51
107.565677450
  0
LINE
  8
2
 62
5
  6
PHANTOM2
 10
199.904391780
 20
108.434640242
 11
199.217793493
 21
110.354038657
  0
LINE
  8
2
 62
5
  6
PHANTOM2
 10
197.155248562
 20
99.178969566
 11
188.402673382
 21
86.825079351
  0
LINE
  8
2
 62
5
  6
PHANTOM2
 10
157.516650972
 20
87.387648671
 11
154.120211122
 21
96.882460061
  0
ARC
  8
2
 62
5
  6
PHANTOM2
 10
678.365821162
 20
-1413.190895879
 40
1600.000000000
 50
107.565677450
 51
109.091482360
  0
ARC
  8
2
 62
5
  6
PHANTOM2
 10
155.532567702
 20
97.387681701
 40
1.500000000
 50
109.091482360
 51
199.682910040
  0
TEXT
  8
1
 62
1
  6
CONTINUOUS
 72
5
 10
74.605926345
 20
212.601259409
 40
2.800000000
  1
A
 41
0.899996850
 11
76.285926345
 21
212.601259409
  0
CIRCLE
  8
1
 62
7
  6
CONTINUOUS
 10
249.822866822
 20
442.317515361
 40
3.100000000
  0
LINE
  8
2
 62
5
  6
PHANTOM2
 10
62.938725322
 20
144.479301701
 11
50.822866822
 21
144.796566621
  0
ARC
  8
1
 62
7
  6
CONTINUOUS
 10
350.059408072
 20
362.317515361
 40
1.539793070
 50
271.500000000
 51
88.499999990
  0
ARC
  8
1
 62
7
  6
CONTINUOUS
 10
350.059408072
 20
422.317515361
 40
1.539793070
 50
271.500000000
 51
88.499999990
  0
LINE
  8
1
 62
7
  6
CONTINUOUS
 10
322.599201142
 20
339.317515361
 11
322.599201142
 21
360.058123631
  0
LINE
  8
1
 62
7
  6
CONTINUOUS
 10
322.599201142
 20
364.576907081
 11
322.599201142
 21
420.058123631
  0
LINE
  8
1
 62
7
  6
CONTINUOUS
 10
322.599201142
 20
424.576907081
 11
322.599201142
 21
445.317515361
  0
ARC
  8
1
 62
7
  6
CONTINUOUS
 10
238.822866822
 20
341.317515361
 40
20.000000000
 50
270.000000000
 51
0.000000000
  0
LINE
  8
2
 62
2
  6
CENTER
 10
58.572866761
 20
60.817515325
 11
87.072866801
 21
60.817515325
  0
LINE
  8
2
 62
2
  6
CENTER
 10
143.822866822
 20
444.317515361
 11
143.822866822
 21
464.317515361
  0
LINE
  8
2
 62
2
  6
CENTER
 10
133.822866822
 20
454.317515361
 11
153.822866822
 21
454.317515361
  0
LINE
  8
2
 62
2
  6
CENTER
 10
72.822866801
 20
46.567515268
 11
72.822866801
 21
75.067515309
  0
LINE
  8
1
 62
4
  6
HIDDEN2
 10
80.683328473
 20
61.606909200
 11
72.033472982
 21
52.957053710
  0
LINE
  8
1
 62
5
  6
PHANTOM2
 10
84.822866822
 20
252.817515361
 11
86.422866822
 21
252.817515361
  0
INSERT
  8
1
 62
7
  6
CONTINUOUS
  2
blk466
 10
72.822866822
 20
60.817515361
 41
10.500000000
 42
10.499999980
 50
0.000000000
  0
CIRCLE
  8
1
 62
7
  6
CONTINUOUS
 10
72.822866822
 20
60.817515361
 40
13.249999980
  0
LINE
  8
1
 62
7
  6
CONTINUOUS
 10
69.620503193
 20
53.595680454
 11
69.620503193
 21
53.595680454
  0
LINE
  8
1
 62
7
  6
CONTINUOUS
 10
326.199201142
 20
339.317515361
 11
341.999201142
 21
339.317515361
  0
LINE
  8
1
 62
7
  6
CONTINUOUS
 10
316.599201142
 20
339.317515361
 11
316.599201142
 21
445.317515361
  0
LINE
  8
1
 62
7
  6
CONTINUOUS
 10
326.199201142
 20
338.517515361
 11
320.849201142
 21
338.517515361
  0
LINE
  8
1
 62
7
  6
CONTINUOUS
 10
341.999201142
 20
338.517515361
 11
326.199201142
 21
338.517515361
  0
POLYLINE
  8
1
 62
5
  6
CONTINUOUS
 66
1
  0
VERTEX
  8
1
 10
320.499201142
 20
294.317515361
  0
VERTEX
  8
1
 10
321.854982864
 20
292.802392548
 42
0.041173658
  0
VERTEX
  8
1
 10
324.553414116
 20
291.158074690
 42
0.061310285
  0
VERTEX
  8
1
 10
327.241186344
 20
291.002294725
 42
0.054034161
  0
VERTEX
  8
1
 10
329.927531365
 20
291.900813650
 42
0.028496671
  0
VERTEX
  8
1
 10
332.625961865
 20
293.406691112
 42
0.008761578
  0
VERTEX
  8
1
 10
335.350607941
 20
295.071154892
 42
-0.006019077
  0
VERTEX
  8
1
 10
338.101024542
 20
296.488677288
 42
-0.019311064
  0
VERTEX
  8
1
 10
340.860495777
 20
297.302006236
 42
-0.037499770
  0
VERTEX
  8
1
 10
343.612352117
 20
297.153752113
 42
-0.055070844
  0
VERTEX
  8
1
 10
346.344224393
 20
295.673766116
 42
-0.051113536
  0
VERTEX
  8
1
 10
347.699201142
 20
294.317515361
  0
VERTEX
  8
1
 10
347.699201142
 20
294.317515361
  0
VERTEX
  8
1
 10
347.699201142
 20
294.317515361
  0
VERTEX
  8
1
 10
347.699201142
 20
294.317515361
  0
VERTEX
  8
1
 10
347.699201142
 20
294.317515361
  0
VERTEX
  8
1
 10
347.699201142
 20
294.317515361
  0
VERTEX
  8
1
 10
347.699201142
 20
294.317515361
  0
VERTEX
  8
1
 10
347.699201142
 20
294.317515361
  0
VERTEX
  8
1
 10
347.699201142
 20
294.317515361
  0
VERTEX
  8
1
 10
347.699201142
 20
294.317515361
  0
VERTEX
  8
1
 10
347.699201142
 20
294.317515361
  0
VERTEX
  8
1
 10
347.699201142
 20
294.317515361
  0
VERTEX
  8
1
 10
347.699201142
 20
294.317515361
  0
VERTEX
  8
1
 10
347.699201142
 20
294.317515361
  0
VERTEX
  8
1
 10
347.699201142
 20
294.317515361
  0
VERTEX
  8
1
 10
347.699201142
 20
294.317515361
  0
VERTEX
  8
1
 10
347.699201142
 20
294.317515361
  0
VERTEX
  8
1
 10
347.699201142
 20
294.317515361
  0
VERTEX
  8
1
 10
347.699201142
 20
294.317515361
  0
VERTEX
  8
1
 10
347.699201142
 20
294.317515361
  0
VERTEX
  8
1
 10
347.699201142
 20
294.317515361
  0
VERTEX
  8
1
 10
347.699201142
 20
294.317515361
  0
VERTEX
  8
1
 10
347.699201142
 20
294.317515361
  0
VERTEX
  8
1
 10
347.699201142
 20
294.317515361
  0
VERTEX
  8
1
 10
347.699201142
 20
294.317515361
  0
VERTEX
  8
1
 10
347.699201142
 20
294.317515361
  0
VERTEX
  8
1
 10
347.699201142
 20
294.317515361
  0
VERTEX
  8
1
 10
347.699201142
 20
294.317515361
  0
VERTEX
  8
1
 10
347.699201142
 20
294.317515361
  0
VERTEX
  8
1
 10
347.699201142
 20
294.317515361
  0
VERTEX
  8
1
 10
347.699201142
 20
294.317515361
  0
VERTEX
  8
1
 10
347.699201142
 20
294.317515361
  0
SEQEND
  8
1
  0
LINE
  8
1
 62
5
  6
PHANTOM2
 10
320.499201142
 20
334.317515361
 11
320.849201142
 21
334.317515361
  0
LINE
  8
1
 62
5
  6
PHANTOM2
 10
59.222866822
 20
252.817515361
 11
60.822866822
 21
252.817515361
  0
LINE
  8
1
 62
7
  6
CONTINUOUS
 10
83.322866822
 20
463.317515361
 11
83.322866822
 21
469.317515361
  0
LINE
  8
1
 62
7
  6
CONTINUOUS
 10
62.322866822
 20
469.317515361
 11
63.322866822
 21
470.317515361
  0
LINE
  8
1
 62
4
  6
CONTINUOUS
 10
83.322866822
 20
469.317515361
 11
62.322866822
 21
469.317515361
  0
LINE
  8
1
 62
7
  6
CONTINUOUS
 10
82.322866822
 20
470.317515361
 11
63.322866822
 21
470.317515361
  0
LINE
  8
1
 62
4
  6
CONTINUOUS
 10
62.322866822
 20
315.317515361
 11
83.322866822
 21
315.317515361
  0
LINE
  8
1
 62
7
  6
CONTINUOUS
 10
63.322866822
 20
314.317515361
 11
82.322866822
 21
314.317515361
  0
LINE
  8
1
 62
7
  6
CONTINUOUS
 10
62.322866822
 20
315.317515361
 11
63.322866822
 21
314.317515361
  0
LINE
  8
1
 62
7
  6
CONTINUOUS
 10
82.322866822
 20
314.317515361
 11
83.322866822
 21
315.317515361
  0
LINE
  8
1
 62
7
  6
CONTINUOUS
 10
83.322866822
 20
315.317515361
 11
83.322866822
 21
321.317515361
  0
LINE
  8
1
 62
7
  6
CONTINUOUS
 10
62.322866822
 20
469.317515361
 11
62.322866822
 21
463.317515361
  0
LINE
  8
1
 62
7
  6
CONTINUOUS
 10
62.322866822
 20
315.317515361
 11
62.322866822
 21
321.317515361
  0
LINE
  8
1
 62
7
  6
CONTINUOUS
 10
82.322866822
 20
470.317515361
 11
83.322866822
 21
469.317515361
  0
INSERT
  8
1
 62
4
  6
CONTINUOUS
  2
blk488
 10
72.822866822
 20
60.817515361
 41
9.500000000
 42
9.500000041
 50
0.000000000
  0
LINE
  8
1
 62
7
  6
CONTINUOUS
 10
341.999201142
 20
339.317515361
 11
346.599201142
 21
339.317515361
  0
LINE
  8
1
 62
7
  6
CONTINUOUS
 10
56.322866822
 20
227.817515361
 11
79.322866822
 21
227.817515361
  0
LINE
  8
1
 62
4
  6
HIDDEN
 10
56.188892225
 20
242.817515361
 11
36.322866822
 21
242.817515361
  0
LINE
  8
1
 62
4
  6
HIDDEN
 10
56.322866822
 20
227.317515361
 11
56.322866822
 21
227.317515361
  0
LINE
  8
1
 62
7
  6
CONTINUOUS
 10
81.322866822
 20
243.317515361
 11
87.322866822
 21
243.317515361
  0
LINE
  8
1
 62
4
  6
HIDDEN
 10
63.322866822
 20
243.317515361
 11
81.322866822
 21
243.317515361
  0
ARC
  8
1
 62
4
  6
HIDDEN
 10
36.322866822
 20
229.317515361
 40
2.000000000
 50
180.000000000
 51
270.000000000
  0
LINE
  8
1
 62
4
  6
HIDDEN
 10
36.322866822
 20
227.317515361
 11
56.322866822
 21
227.317515361
  0
TEXT
  8
1
 62
1
  6
CONTINUOUS
 72
5
 10
296.758550186
 20
84.344672133
 40
2.800000000
  1
キーNo.T0230
 41
1.036764896
 11
323.078550186
 21
84.344672133
  0
LINE
  8
1
 62
4
  6
HIDDEN
 10
34.322866822
 20
243.317515361
 11
34.322866822
 21
229.317515361
  0
CIRCLE
  8
1
 62
4
  6
HIDDEN
 10
223.822866822
 20
218.317515361
 40
13.000000000
  0
INSERT
  8
1
 62
4
  6
HIDDEN
  2
blk500
 10
223.822866822
 20
218.317515361
 41
10.500000000
 42
10.499999980
 50
0.000000000
  0
ARC
  8
1
 62
4
  6
HIDDEN
 10
223.822866822
 20
218.317515361
 40
8.500000000
 50
90.000000000
 51
270.000000000
  0
ARC
  8
1
 62
7
  6
CONTINUOUS
 10
61.822866822
 20
245.317515361
 40
2.500000000
 50
270.000000000
 51
306.869897645
  0
INSERT
  8
1
 62
5
  6
PHANTOM
  2
blk503
 10
392.753395273
 20
411.796190732
 41
3.789095915
 42
3.788614012
 50
134.758841133
  0
LINE
  8
2
 62
5
  6
PHANTOM
 10
142.822866822
 20
420.236695810
 11
142.822866822
 21
409.836536633
  0
LINE
  8
1
 62
2
  6
CONTINUOUS
 10
323.678796011
 20
83.132048447
 11
296.152238343
 21
83.132048447
  0
LINE
  8
1
 62
2
  6
CONTINUOUS
 10
572.242928735
 20
310.362243355
 11
607.664073757
 21
310.362243355
  0
LINE
  8
1
 62
5
  6
PHANTOM
 10
401.515535140
 20
414.817515361
 11
340.385060949
 21
414.817515361
  0
LINE
  8
1
 62
5
  6
PHANTOM
 10
380.385744766
 20
408.817461517
 11
395.014235640
 21
408.755504019
  0
ARC
  8
1
 62
5
  6
PHANTOM
 10
380.411164160
 20
414.817515360
 40
6.000107689
 50
90.242733700
 51
269.757266300
  0
LINE
  8
1
 62
5
  6
PHANTOM
 10
395.064044504
 20
420.879737664
 11
380.385744766
 21
420.817569205
  0
INSERT
  8
1
 62
5
  6
PHANTOM
  2
blk511
 10
397.324884872
 20
417.839050951
 41
3.789095915
 42
3.788614012
 50
134.758841133
  0
INSERT
  8
1
 62
5
  6
PHANTOM
  2
blk512
 10
392.778299705
 20
417.858307554
 41
3.789095915
 42
3.788614012
 50
134.758841133
  0
ENDSEC
  0
EOF

